Jonas Brothers - Summer Rain Text Guitar Tab

Learn song with the online tabulature player
This is the tab for the awesome song Summer rain. I'm new at this, so correct me if i'm wrong.

Jonas Brothers - Summer rain
Standard tuning.
Capo. on 5th
Strumming the whole song.
Tab is relative to capo.

Intro
  D  D  D  D                                A     B  B     G  G
E-2--2--2--2-----2--2--2--2-----2--2--2--2--0-----2--2-----3--3-|
A-3--3--3--3-----2--2--2--2-----1--1--1--1--1-----3--3-----3--3-|
D-2--2--2--2-----2--2--2--2-----2--2--2--2--2-----4--4-----4--4-|
G-0--0--0--0-----0--0--0--0-----2--2--2--2--2-----4--4-----5--5-|
B-x--x--x--x-----x--x--x--x-----x--x--x--x--x-----2--2-----5--5-|
e-x--x--x--x-----x--x--x--x-----x--x--x--x--x-----x--x-----3--3-|



Verse

It's time for something it's time for change it's time to get things re-arranged oh yeah
  D  D  D  D                                A     B  B     G  G
E-2--2--2--2-----2--2--2--2-----2--2--2--2--0-----2--2-----3--3-|
A-3--3--3--3-----2--2--2--2-----1--1--1--1--1-----3--3-----3--3-|
D-2--2--2--2-----2--2--2--2-----2--2--2--2--2-----4--4-----4--4-|
G-0--0--0--0-----0--0--0--0-----2--2--2--2--2-----4--4-----5--5-|
B-x--x--x--x-----x--x--x--x-----x--x--x--x--x-----2--2-----5--5-|
e-x--x--x--x-----x--x--x--x-----x--x--x--x--x-----x--x-----3--3-|

The summer heat has been getting me and last summers love is gone, gone, gone
  D  D  D  D                                   B  A  G  G  G
E-2--2--2--2-----2--2--2--2-----2--2--2--2-----2--0--3--3--3-|
A-3--3--3--3-----2--2--2--2-----1--1--1--1-----3--2--3--3--3-|
D-2--2--2--2-----2--2--2--2-----2--2--2--2-----4--2--4--4--4-|
G-0--0--0--0-----0--0--0--0-----2--2--2--2-----4--2--5--5--5-|
B-x--x--x--x-----x--x--x--x-----x--x--x--x-----2--0--5--5--5-|
e-x--x--x--x-----x--x--x--x-----x--x--x--x-----x--x--3--3--3-|

Pre course

I've been saving my love for a rainy day and it's really coming down today!
  A  A  A  A  A   B  B   G  G  G     A  A  A  A  A   B  G  G  G  G
E-0--0--0--0--0---2--2---3--3--3-----0--O--O--O--O---2--3--3--3--3-|
A-2--2--2--2--2---3--3---3--3--3-----2--2--2--2--2---3--3--3--3--3-|
D-2--2--2--2--2---4--4---4--4--4-----2--2--2--2--2---4--4--4--4--4-|
G-2--2--2--2--2---4--4---5--5--5-----2--2--2--2--2---4--5--5--5--5-|
B-0--0--0--0--0---2--2---5--5--5-----0--0--0--0--0---2--5--5--5--5-|
e-X--X--X--X--X---X--X---3--3--3-----X--X--X--X--X---X--3--3--3--3-|

Course

Then out of the blue you came you shine a little light on a clouded day,
baby you could make a broken heart go away
  G  G  G  A  A  A  D  D  D  B  B  B   G  G  G  A  A  A  D  D  D  B  B  B
E-3--3--3--0--0--0--2--2--2--2--2--2---3--3--3--0--0--0--2--2--2--2--2--2-|
A-3--3--3--2--2--2--3--3--3--3--3--3---3--3--3--2--2--2--3--3--3--3--3--3-|
D-4--4--4--2--2--2--2--2--2--4--4--4---4--4--4--2--2--2--2--2--2--4--4--4-|
G-5--5--5--2--2--2--0--0--0--4--4--4---5--5--5--2--2--2--0--0--0--4--4--4-|
B-5--5--5--0--0--0--X--X--X--2--2--2---5--5--5--0--0--0--X--X--X--2--2--2-|
e-3--3--3--X--X--X--X--X--X--X--X--X---3--3--3--X--X--X--X--X--X--X--X--X-|


I'm not gonna lie, this feeling inside I can't explain, yea babe, I'm gonna blame 
it on the summer rain
  G  G  G  A  A  A   B  A  G     A
E-3--3--3--0--0--0---2--0--3-----0---------------|
A-3--3--3--2--2--2---3--2--3-----2---------------|
D-4--4--4--2--2--2---4--2--4-----2---------------|
G-5--5--5--2--2--2---4--2--5-----2---------------|
B-5--5--5--0--0--0---2--0--5-----0---------------|
e-3--3--3--X--X--X---X--X--3-----X---------------|

Out course and outro

Blame it on, summer rain, yea, rain rain rain, rain rain rain

  D  D  D  D                                A     B  B     G  G
E-2--2--2--2-----2--2--2--2-----2--2--2--2--0-----2--2-----3--3-|
A-3--3--3--3-----2--2--2--2-----1--1--1--1--1-----3--3-----3--3-|
D-2--2--2--2-----2--2--2--2-----2--2--2--2--2-----4--4-----4--4-|
G-0--0--0--0-----0--0--0--0-----2--2--2--2--2-----4--4-----5--5-|
B-x--x--x--x-----x--x--x--x-----x--x--x--x--x-----2--2-----5--5-|
e-x--x--x--x-----x--x--x--x-----x--x--x--x--x-----x--x-----3--3-|


Hope you learned it and enjoyed it as much as i did. Have fun.

Made by: Filip Filipović     lolek_95

Comment on: filip-filipovic@hotmail.com