Jonas Brothers - What I Go To School For Text Guitar Tab

Learn song with the online tabulature player
k this is all i have so far

Chorus

E-----------------------------------------------------------------|
B-----------------------------------------------------------------|
G-2-2-2-2-2-2-2-2-7-7-7-7-7-7-7-7---------------------------------|
D-2-2-2-2-2-2-2-2-7-7-7-7-7-7-7-7-4-4-4-4-4-4-4-4-2-2-2-2-2-2-2-2-|
A-0-0-0-0-0-0-0-0-5-5-5-5-5-5-5-5-4-4-4-4-4-4-4-4-2-2-2-2-2-2-2-2-|
E---------------------------------2-2-2-2-2-2-2-2-0-0-0-0-0-0-0-0-|
 that's what i go to school for even though it is a real bore.

E-----------------------------------------------------------------|
B-----------------------------------------------------------------|
G-2-2-2-2-2-2-2-2-7-7-7-7-7-7-7-7---------------------------------|
D-2-2-2-2-2-2-2-2-7-7-7-7-7-7-7-7-4-4-4-4-4-4-4-4-2-2-2-2-2-2-2-2-|
A-0-0-0-0-0-0-0-0-5-5-5-5-5-5-5-5-4-4-4-4-4-4-4-4-2-2-2-2-2-2-2-2-|
E---------------------------------2-2-2-2-2-2-2-2-0-0-0-0-0-0-0-0-|
 You may call me crazy but she is so amazing

E-----------------------------------------------------------------|
B-----------------------------------------------------------------|
G-2-2-2-2-2-2-2-2-7-7-7-7-7-7-7-7---------------------------------|
D-2-2-2-2-2-2-2-2-7-7-7-7-7-7-7-7-4-4-4-4-4-4-4-4-2-2-2-2-2-2-2-2-|
A-0-0-0-0-0-0-0-0-5-5-5-5-5-5-5-5-4-4-4-4-4-4-4-4-2-2-2-2-2-2-2-2-|
E---------------------------------2-2-2-2-2-2-2-2-0-0-0-0-0-0-0-0-|
 that's what i go to school for even though it is a real bore.

E-----------------------------------------------------------------|
B-----------------------------------------------------------------|
G-2-2-2-2-2-2-2-2-7-7-7-7-7-7-7-7---------------------------------|
D-2-2-2-2-2-2-2-2-7-7-7-7-7-7-7-7-4-4-4-4-4-4-4-4-2-2-2-2-2-2-2-2-|
A-0-0-0-0-0-0-0-0-5-5-5-5-5-5-5-5-4-4-4-4-4-4-4-4-2-2-2-2-2-2-2-2-|
E---------------------------------2-2-2-2-2-2-2-2-0-0-0-0-0-0-0-0-|
 Girlfriends i got plenty but she's the one that I need