Jonathan Coulton - Still Alive Acoustic Text Guitar Tab

Learn the song with the online tablature player
STILL ALIVE

Key:

v=downstroke
^=upstroke

VERSE I

      E  E  E  E  E  E  E  E   4x
||-----------------------------||
||o---------2-----------2-----o||
||-------2-----2-----2-----2---||
||----2-----------4------------||
||o---------------------------o||
||-----------------------------||

     E  E  E  E  E  E  E  E       E  E  E  E  E  E  E  E
||----------------------------|----------------------------||
||---------3-----------3------|---------0-----------0------||
||------4-----4-----4-----4---|------1-----1-----1-----1---||
||---4-----------4------------|---2-----------2------------||
||----------------------------|----------------------------||
||----------------------------|----------------------------||

      E  E  E  E  E  E  E  E   6x
||-----------------------------||
||o---------2-----------2-----o||
||-------2-----2-----2-----2---||
||----2-----------4------------||
||o---------------------------o||
||-----------------------------||

     E  E  E  E  E  E  E  E       E  E  E  E  E  E  E  E
||----------------------------|----------------------------||
||---------3-----------3------|---------0-----------0------||
||------4-----4-----4-----4---|------1-----1-----1-----1---||
||---4-----------4------------|---2-----------2------------||
||----------------------------|----------------------------||
||----------------------------|----------------------------||

     E  E  E  B
||------------0---||
||---------1------||
||------2---------||
||---3------------||
||----------------||
||----------------||

CHORUS

     Q E SS  Q E SS       Q E SS  Q E SS
     v v v^  v v v^       v v v^  v v v^
||---0-------3-------||---0-------0------||
||---1-------0-------||---1-------1------||
||---0-------0-------||---2-------0------||
||---2-------0-------||---3-------2------||
||---3-------2-------||---3-------3------||
||---0-------3-------||---0-------0------||

     Q E SS  Q E SS       Q E SS  Q E SS
     v v v^  v v v^       v v v^  v v v^
||---0-------3-------||---0-------0-------||
||---1-------0-------||---1-------1-------||
||---0-------0-------||---2-------0-------||
||---2-------0-------||---3-------2-------||
||---3-------2-------||---3-------3-------||
||---0-------3-------||---0-------0-------||

     Q E SS  Q  E SS      E SS  E SS  Q E SS       Q E SS  Q E SS
     v v v^  v v v^       v v^  v v^  v v v^       v v v^  v v v^
||---1-------3-------||---0-----3-----0-------||---0-------0-------||
||---1-------0-------||---1-----0-----1-------||---1-------0-------||
||---2-------0-------||---0-----0-----0-------||---2-------1-------||
||---3-------0-------||---2-----0-----2-------||---3-------2-------||
||---0-------2-------||---3-----2-----0-------||---3-------2-------||
||---x-------3-------||---0-----3-----0-------||---0-------0-------||

VERSE II

     Q E SS Q E SS       Q E SS Q E SS
     v v v^ v v v^       v v v^ v v v^  8x
||---x------x-------||---x------x-------||
||o--2------2-------||---2------2------o||
||---2------2-------||---2------2-------||
||---2------4-------||---2------4-------||
||o--0------4-------||---0------4------o||
||---x------x-------||---x------x-------||

     Q E SS Q E SS       Q E SS Q E SS
     v v v^ v v v^       v v v^ v v v^
||---3--------------||---0--------------||
||---3--------------||---0--------------||
||---4--------------||---1--------------||
||---4--------------||---2--------------||
||---2--------------||---2--------------||
||---2--------------||---0--------------||

    Q E SS Q E SS       Q E SS Q E SS
     v v v^ v v v^       v v v^ v v v^  6x
||---x------x-------||---x------x-------||
||o--2------2-------||---2------2------o||
||---2------2-------||---2------2-------||
||---2------4-------||---2------4-------||
||o--0------4-------||---0------4------o||
||---x------x-------||---x------x-------||

     Q E SS Q E SS       Q E SS Q E SS
     v v v^ v v v^       v v v^ v v v^
||---3--------------||---0--------------||
||---3--------------||---0--------------||
||---4--------------||---1--------------||
||---4--------------||---2--------------||
||---2--------------||---2--------------||
||---2--------------||---0--------------||

     W
||---0--------------||
||---1--------------||
||---2--------------||
||---3--------------||
||------------------||
||------------------||

REPEAT CHORUS

     Q E SS Q E SS       Q E SS Q E SS
     v v v^ v v v^       v v v^ v v v^  2x
||---x------x-------||---x------x-------||
||o--2------2-------||---2------2------o||
||---2------2-------||---2------2-------||
||---2------4-------||---2------4-------||
||o--0------4-------||---0------4------o||
||---x------x-------||---x------x-------||

      B         E  E  E  E
      v
||---------------------------||
||----2---------------2------||
||----2------------2-----2---||
||----2---------4------------||
||---------------------------||
||---------------------------||

      E  E  E  E  E  E  E  E   3x
||-----------------------------||
||o---------2-----------2-----o||
||-------2-----2-----2-----2---||
||----2-----------4------------||
||o---------------------------o||
||-----------------------------||

     E  E  E  E  E  E  E  E       E  E  E  E  E  E  E  E
||----------------------------|----------------------------||
||---------3-----------3------|---------0-----------0------||
||------4-----4-----4-----4---|------1-----1-----1-----1---||
||---4-----------4------------|---2-----------2------------||
||----------------------------|----------------------------||
||----------------------------|----------------------------||

      E  E  E  E  E  E  E  E   2x
||-----------------------------||
||o---------2-----------2-----o||
||-------2-----2-----2-----2---||
||----2-----------4------------||
||o---------------------------o||
||-----------------------------||

                  Q E SS        Q E SS Q E SS
     E  E  E  E   v v v^        v v v^ v v v^
||----------------x--------||---x------x-------||
||---------2------2--------||---2------2-------||
||------2-----2---2--------||---2------2-------||
||---2------------4--------||---2------4-------||
||----------------4--------||---0------4-------||
||----------------x--------||---x------x-------||

    Q E SS Q E SS        Q E SS Q E SS
     v v v^ v v v^       v v v^ v v v^  2x
||---x------x-------||---x------x-------||
||o--2------2-------||---2------2------o||
||---2------2-------||---2------2-------||
||---2------4-------||---2------4-------||
||o--0------4-------||---0------4------o||
||---x------x-------||---x------x-------||

     W
||---0--------------||
||---1--------------||
||---2--------------||
||---3--------------||
||------------------||
||------------------||

REPEAT CHORUS

    Q E SS Q E SS       Q E SS Q E SS
     v v v^ v v v^       v v v^ v v v^  15x
||---x------x-------||---x------x-------||
||o--2------2-------||---2------2------o||
||---2------2-------||---2------2-------||
||---2------4-------||---2------4-------||
||o--0------4-------||---0------4------o||
||---x------x-------||---x------x-------||

     w
||---0--------------||
||---2--------------||
||---2--------------||
||---2--------------||
||---0--------------||
||---x--------------||

THE END

The cake is a lie.