Jonny Lang - Missing Your Love Text Guitar Tab

Learn the song with the online tablature player
                    Jonny Lang - Missing Your Love

SOLO
Asus A  Asus2  A  F#m  E  Asus  A  Asus2 C#7

e|---7/9~~~~----10p9---10p9--9h10---9---7---------------------------------|
B|------------------------------------------------------------------------|
G|------------------------------------------9~~~---6h7--(7)7p6--7/9~~~~---|
D|------------------------------------------------------------------------|
A|------------------------------------------------------------------------|
E|------------------------------------------------------------------------|

e|------------------------------------------------------------------------|
B|------------------------------------------5~~------5h7---5~~~-(7)-------|
G|--6b---6p4---------------------X--X--4h6--------6-----------------------|
D|------------7p5----5/7~~~-----------------------------------------------|
A|-----------------5------------------------------------------------------|
E|------------------------------------------------------------------------|

e|------------------------------------------------------------------------|
B|---12b~~---10h12--10~~----12------------17b~~~--------------------------|
G|------------------------------11------------------16b--16-------14~~~---|
D|------------------------------------------------------------16----------|
A|------------------------------------------------------------------------|
E|------------------------------------------------------------------------|

e|--5h7----------------------------------------7~~~~---|
B|--5h7----7--5~~~-------------------------------------|
G|----------------------7p6--4/6------------/6---------|
D|-------------------------------7---------------------|
A|----------------------------------7~~~---------------|
E|-----------------------------------------------------|

| /  slide up
| \  slide down
| h  hammer-on
| p  pull-off
| ~  vibrato
| +  harmonic
| x  Mute note