Jonny Lang - Red Light Text Guitar Tab

Learn the song with the online tablature player
                             RED LIGHT - Jonny Lang

INTRO Chords

C#sus G# A#m... 2X

It's played like this:

   C#sus       G#            A#m
E|-------------------------------------------------------------|
B|-------4-------------------------2---------------------------|
G|-----6----------5h6p5----------3-----------------------------|
D|---6------------------6s3----3--------1h3--------------------|
A|-4-------------------------1--------1------------------------|
E|-------------4-----------------------------------------------|

VERSE

C#sus                 G#                   A#m
You sing a song While sitting at a red light

C#sus                   G#                   A#m
You think of home While sitting at a red light

C#sus                     G#
Too slow to roll Put your life on hold

A#m               F#
An open path With nowhere to go

C#sus                     G#                   A#m      F#
You start to wonder While sitting at a red light

CHORUS

C#sus                  G#
You can run a red light

A#m                    F#
Give up at a red light

C#sus                    G#
You break the mold When running through the tolls

A#m                             F#--Fm--D#5--C#sus <--This chord is the beginning of next verse.
Speeding through your whole life

VERSE 2
SAME CHORDS AS VERSE 1)

A chance to breathe
While sitting at a red light
You look around
reflecting on your life

A chance to think
Am I drinkning too much
Should I keep going
Lose the life that I love
A second glance
When coming to a red light

CHORUS 2
SAME CHORDS AS FIRST CHORUS)

You can run a red light
Give up at a red light
You break the mold
When running through the tolls
Speeding through your whole life

BRIDGE
SAME CHORDS AS CHORUS'S)

When things look low
You've gotta keep stong
Feet to the grass
You've gotta walk it off
The bows been tied
Too tight to laugh
Feet to the ground
You've gotta walk it off

GUITAR SOLO
(use the chords in chorus)

E|------------------------------------------------------------------------|
B|------------------------------------------------------------------------|
G|------6-6----8b10------8b10r8~~~~~~~-8b10r8p6-----6~~~~~~~--------------|
D|-6/8------8-----------------------------------8-8----------8p6----------|
A|--------------------------------------------------------------(8)-------|
E|------------------------------------------------------------------------|

E|-----9-----10-----13~~~--13--14--16----------------------------------------|
B|------------------------------------16b18r16r14-16~~~~-16b18-16b18r-16~~~~-|
G|--/10-10/11--11/13---------------------------------------------------------|
D|---------------------------------------------------------------------------|
A|---------------------------------------------------------------------------|
E|---------------------------------------------------------------------------|

-------16b18r16~~~~~~~~~|
----14------------------|
/15---------------------|
------------------------|
------------------------|
------------------------|

Start to think
Am I drinkning too much
Should I keep going
Lose the life that I love

You can run a red light
Give up at a red light
You break the mold
When running through the tolls
Speeding through your whole life

You can run a red light
Give up at a red light
You break the mold
When running through the tolls
Speeding through your whole life

You can run a red light
You can run a red light

You sing a song
While sitting at a red light