Joseph Arthur - In The Sun Text Guitar Tab

Learn song with the online tabulature player
-------------------------------------------------------------------------------
                             in the sun - joseph arthur
-------------------------------------------------------------------------------
Tabbed by:jenny
Email:jen_hall_182@hotmail.com

Tuning:eadgbe  CAPO ON 3RD
riff A

this is a really beautiful song by u.s singer songwriter joseph arthur, if you havent
heard it yet, download it and learn it!

e|---------------------------------------------------------------------------|
B|--------3--3---------------------------------------------------------------|
G|----------0--0--------------0-0-0-0---------------------0-----0------------|
D|--2--------------0---0h-2---2-0-2-0--------0----0-----------------0--------|
A|--2------------------3----------------3--2---2----2---0-----0--------------|
E|--0--------------------------------------3---3--------2-----2--------------|



chords used in verse and chorus - not sure about the names

(x22033)
(x32033)
(320033)
(200233)

its just the above four chords over and over. this is my first tab, hope you enjoy it, be gentle!