Josh Groban - You Raise Me Up Text Guitar Tab

Learn song with the online tabulature player
e|-----------------3~5-------------------------------------------------------|
B|---------6----------------6-------6h8-----6----6----------------6----------|
G|----5-------------------------------------------------7---5----------------|
D|---------------------------------------------------------------------------|
A|---------------------------------------------------------------------------|
E|---------------------------------------------------------------------------|

e|-----------------5-----5~8--------------6~10---8-----5-----6h5-------3-----|
B|---5----6--------------------------6---------------------------------------|
G|---------------------------------------------------------------------------|
D|---------------------------------------------------------------------------|
A|---------------------------------------------------------------------------|
E|---------------------------------------------------------------------------|

e|--8--8---12---12h13-------------12-10--------------------------------------|
B|------------------------11--------------13---11----11h13---10--------------|
G|---------------------------------------------------------------------------|
D|---------------------------------------------------------------------------|
A|---------------------------------------------------------------------------|
E|---------------------------------------------------------------------------|

e|-------------3-----3~5-----------8----5------------------------------------|
B|---6---6------------------------------------8-----6------8------6----------|
G|---------------------------------------------------------------------------|
D|---------------------------------------------------------------------------|
A|---------------------------------------------------------------------------|
E|---------------------------------------------------------------------------|