Josh Kelley - Amazing Text Guitar Tab

Learn the song with the online tablature player
Amazing (Solo)- Josh Kelley

e|-7^-7------------------------7^-7------15^-14----------------------|
B|-7^---10-7-------------------7^---10-7--------16-14-12-10-12-14-12-|
G|-----------2-4-6-7-6-2-4-2-----------------------------------------|
D|-------------------------------------------------------------------|
A|-------------------------------------------------------------------|
E|-------------------------------------------------------------------|

e|-9^--9^-9^-9^-7^--7^-7^-7^-5-4-2---------------|
B|---------------------------------2-3-5-5-5-2---|
G|---------------------------------------------2-|
D|-----------------------------------------------|
A|-----------------------------------------------|
E|-----------------------------------------------|

e|-------------2-------------------2-4-7-5-|
B|-2-3-5-2-3-5---5-3-2-------2-3-5-----7-5-|
G|---------------------4-2-4---------------|
D|-----------------------------------------|
A|-----------------------------------------|
E|-----------------------------------------|

| / slide up
| \ slide down
| h hammer-on
| p pull-off
| ~ vibrato
| + harmonic
| x Mute note