Josh Turner - Me And God Text Guitar Tab

Learn song with the online tabulature player
------------------------------------------------------
               Me and God - Josh Turner                    
------------------------------------------------------

Tabbed By: Bassmaster2010
E-mail: wesleyvaughn@musfiber.com

Tuning: 1/2 step down (Eb,Ab,Db,Gb)

 (Intro)
Gb|--------------------------------------------------|
Db|--------------------------------------------------|
Ab|--------------5-55--2-22--------------5-5---5-5---|
Eb|--3-33--5-55--------------3-33--5-55-----5-----5--|

 (Verse) 0:14
Gb|--------------------------------------------------|
Db|--------------------------------------------------|
Ab|--5-5---5-5---5-5---5-5------5-----5--5-5---5-5---|
Eb|-----5-----5-----5-----5--3-3---3-3------5-----5--|

Gb|--------------------------------------------------|
Db|--------------------------------------------------|
Ab|-----7-----7-----5-----5--5-5---5-5---5-5---5-5---|
Eb|--5-5---5-5---3-3---3-3------5-----5-----5-----5--|

 (Verse) 0:39
Gb|--------------------------------------------------|
Db|--------------------------------------------------|
Ab|--5-5---5-5---5-5---5-5------5-----5--5-5---5-5---|
Eb|-----5-----5-----5-----5--3-3---3-3------5-----5--|

Gb|--------------------------------------|
Db|--------------------------------------|
Ab|-----7-----7-----5-----5--5-55--5-55--|
Eb|--5-5---5-5---3-3---3-3---------------|

 (Chorus) 1:01
Gb|--------------------------------------------------|
Db|--------------------------------------------------|
Ab|--------------5-55--5-55--2-22--------------------|
Eb|--3-33--5-55--------------------3-33--5-55--5-55--|

Gb|--------------------------------------------------|
Db|--------------------------------------------------|
Ab|--------------5-54-42-25-5------------5-5---5-5---|
Eb|--3-33--5-55--------------3-33--5-55-----5-----5--|
 
(Fill 1)
Gb|---------------------------|
Db|---------------------------|
Ab|---------------5-5---5-5---|
Eb|--3-33--5--55-----5-----5--|

(Verse) 1:32
Gb|--------------------------------------------------|
Db|--------------------------------------------------|
Ab|--5-5---5-5---5-5---5-5------5-----5--5-5---5-5---|
Eb|-----5-----5-----5-----5--3-3---3-3------5-----5--|

Gb|--------------------------------------|
Db|--------------------------------------|
Ab|-----7-----7-----5-----5--5-55--5-55--|
Eb|--5-5---5-5---3-3---3-3---------------|

 (Chorus) 1:54
Gb|--------------------------------------------------|
Db|--------------------------------------------------|
Ab|--------------5-55--5-55--2-22--------------------|
Eb|--3-33--5-55--------------------3-33--5-55--5-55--|

Gb|--------------------------------------|
Db|--------------------------------------|
Ab|--------------5-54-42-25-5------------|
Eb|--3-33--5-55--------------3-33--5-55--|

 (Guitar Solo) 2:16
Gb|--------------------------------------------------|
Db|--------------------------------------------------|
Ab|--------------5-55--5-55--2-22--------------------|
Eb|--3-33--5-55--------------------3-33--5-55--5-55--|

 (Ending Words) 2:28
Gb|--------------------------------------------------|
Db|--------------------------------------------------|
Ab|--------------5-54-42-25-5------------5-55--5-55--|
Eb|--3-33--5-55--------------3-33--5-55--------------|

Gb|-----------------------------------------------|
Db|-----------------------------------------------|
Ab|--------------5-55--5-55--------------5-5---5~-|
Eb|--3-33--5~----------------3-33--5-55-----5-5---|