Josh Turner - Your Man Text Guitar Tab

Learn song with the online tabulature player
this is the steel intro set up for guitar

e-------------------------------------------------------------|
b-------------------------------------------------------------|
g-------7--7/9--11--9--7-----7-7--999--11--9--7-------7-------|
d---7/9-------------------9---------------------9--7-------7--|
a-9-----------------------------------------------------9-----|
e-------------------------------------------------------------|

e-------------------------------------------------------------------|
b-------------------------------------------------------------------|
g--------------------------------------11--11--999--7----7----------|
d--77--9--7--9--7--9--7--11-11-1111--9----------------9----7-99-7---|
a-----------------------------------------------------------------9-|
e-------------------------------------------------------------------|
                                                          verse 1: baby.....

this tab is pretty close as far as i can tell. there is some grace notes and extra 
here and there i couldn't figure out, but this is the basic tune. feel free to add in your 
slides and notes