Josh Turner - Your Smile Text Guitar Tab

Learn song with the online tabulature player
-------------------------------------------------------------------------------
                             Your Smile – Josh Turner
-------------------------------------------------------------------------------
Tabbed by:jano915

 
*CAPO 1st FRET*
ALL notes are RELATIVE to the capo being on the 1st fret.

Your Smile by Josh Turner
guitar solo starts at 1:34, listen to song for timing

e|---------------------------------------------------------------------------|
B|---------------------------------------------------------------------------|
G|-------------2------------------------------2------------------------------|
D|---------------4---2---------------------------4--2------------------------|
A|---2\4--2\4-----------4--2--0--2--4--------------------4--2--0--2--4-------|
E|-------------------------------------5--------------------------------5----|

e|---------------------------------------------------------------------------|
B|---------------------------------------------------------------------------|
G|---------------------------------------------------------------------------|
D|---------------------------------------------------------------------------|
A|---2--4--------------------------------------------------------------------|
E|----------5-------0-----2\7----0-------------------------------------------|



************************************

| \   slide down

************************************