Josie And The Pussycats - Spin Around Text Guitar Tab

Learn the song with the online tablature player
E---------0----------0-------------0-------------------------0--------|
A------0--------0--------------0---------0---0---------0----------0---|
D----2--2----2---2----------2---2-----2---2---2-----2----2-----2----2-|
G-------------------------------------------------0-------------------|
B---0--------------------0--------------------------------------------|
E---------------------------------------------------------------------|

E------------------------------|
A------------------------------|
D-------0-----0-----0----0-----|
G-----0-----0-----0----0-------|
B---3-----2-----0-----0----2-3-|
E------------------------------|

verse

A  D  A  D  C#  B
A  D  A  D  C#  B

E, D, B(high B)

chorus

E  D  A  B  E  D  A  B

LALALA'S

A  D  A  D  C#  B

    E    D   E    D    E    D    A            B
...yeah yeah yeah yeah yeah yeah yeah.....WOO!

I think that's about it ^_^