Journey - After All These Years Text Guitar Tab

Learn song with the online tabulature player
key of C..

intro.. C Am F G

     C

E|---12--15-12----15-12^^^-------|
B|-----15-------15---------------|
G|-------------------------------|
D|-------------------------------|
A|-------------------------------|
E|-------------------------------|

     Am

E|---12--15-12----15-12^^^-------|
B|-----15-------15---------------|
G|-------------------------------|
D|-------------------------------|
A|-------------------------------|
E|-------------------------------|

            F                         G

E|-13-15-17---------------12-12h13p12-------|
B|----------13-13^^^^--15-------------13/15-|
G|------------------------------------------|
D|------------------------------------------|
A|------------------------------------------|
E|------------------------------------------|

first stanza
C 
Am 
F G.........

after the chorus..
intro then


E|---------------|
B|--12h13h15-----|
G|-----------13--|
D|---------------|
A|---------------|
E|---------------|

tab by yobot... email: yobot_laus@yahoo.com