Journey - Any Way You Want It Text Bass Tab

Learn the song with the online tablature player
Intro
|----|---------|-------|----|----------------|----------------|
|----|---------|-------|----|----------------|--0-2-0---------|
|----|---------|-------|--3-|--2-3-2-3-2---3-|--------3-2-0---|
|--3-|-----2-3-|-----0-|----|------------3---|--------------3-|

Verse

|-----------------|-----------------|---------------|----------------|
|-----------------|-----------------|---------------|----------------|
|-----------------|-----------------|-------------3-|--2-3-2-3-2-----|
|---3-3-3-3-2-2-2-|---2-2-2-2-0-0-0-|---0-0-0-0-0---|------------3-3-|
              > >               > >               >
>

|-----------------|-----------------|---------------|----------------|
|-----------------|-----------------|---------------|----------------|
|-----------------|-----------------|-------------3-|--2-3-2-3-2-----|
|---3-3-3-3-2-2-2-|---2-2-2-2-0-0-0-|---0-0-0-0-0---|------------3-3-|
              > >               > >               >
>

|-----------------|-----------------|---------------|----------------|
|-----------------|-----------------|---------------|----------------|
|-----------------|-----------------|-------------3-|--2-3-2-3-2-----|
|---3-3-3-3-2-2-2-|---2-2-2-2-0-0-0-|---0-0-0-0-0---|------------3-3-|
              > >               > >               >              >
>

|-----------------|-----------------|----------------|---------0-2-4---|
|-----------------|-----------------|----------------|--0--2-4-------5-|
|-----------------|-----------------|-----------0--3-|-----------------|
|---3-3-3-3-2-2-2-|---2-2-2-2-0-0-0-|---2---3--------|-----------------|
              > >               > >

Chorus

|-----------------|-----------------|---------------|---------------|
|-----4---4-----4-|-----4---4-----2-|-------2-------|-------------5-|
|-----------------|-----------------|-------------3-|---2-3-2-3-----|
|---3---3---3-2---|---2---2---2-0---|---0-0---0-3---|-----------3---|

|-----------------|-------------------|---------------|----------------|
|-----4---4-----4-|-----4----4--------|---------------|--0-2-0---------|
|-----------------|-------------------|---------0-2-3-|--------3-2-0---|
|---3---3---3-2---|---2---2----2-0-0--|--0-2-3--------|--------------3-|

                                        2nd chorus play this into the solo
                                                        |---------------|
                                                        |---------------|
                                                        |--3-3-3--2-----|
                                                        |-----------3-3-|

Outro

|-----------------|-------------------|---------------|----------------|
|-----4---4-----4-|-----4----4--------|---------------|----------------|
|-----------------|-------------------|---------0-2-3-|--3-3-3--2------|
|---3---3---3-2---|---2---2----2-0-0--|--0-2-3--------|-----------3-3--|

Sequence

Intro
verse1
Chorus
Verse2

Chorus
w/ 2nd ending)
Solo and Bridge (Verse w/ some minor variations)
Outro/Chorus (repeat the outro line over and over until you
feel like stopping)