Jovanotti - Il Piu Grande Spettacolo Dopo Il Big Bang Text Guitar Tab

Learn song with the online tabulature player
Il Più Grande Spettacolo Dopo Il Big Bang
By Lorenzo Cherubini "Jovanotti"
Tabbed By TheSiggi 

Guitar 1 - Standard Tuning (EADGBe) - Overdriven
Guitar 2 - Standard Tuning (EADGBe) - Distorted


Guitar 1 - Main Riff (Play it during all the song)

     C5                            C/B                           
e|--------------------------------------------------------------| 
B|--------------------------------------------------------------| 
G|--5-5-5-5-5-5-5-5-5-5-5-5-5-5-5-------------------------------| 
D|--5-5-5-5-5-5-5-5-5-5-5-5-5-5-5-5-5-5-5-5-5-5-5-5-5-5-5-5-5-5-| 
A|--3-3-3-3-3-3-3-3-3-3-3-3-3-3-3-2-2-2-2-2-2-2-2-2-2-2-2-2-2-2-| 
E|--------------------------------------------------------------| 


    A5                             F5
e|------------------------------------------------------------|
B|------------------------------------------------------------|
G|------------------------------------------------------------|
D|-7-7-7-7-7-7-7-7-7-7-7-7-7-7-7-3-3-3-3-3-3-3-3-3-3-3-3-3-3-3|
A|-7-7-7-7-7-7-7-7-7-7-7-7-7-7-7-3-3-3-3-3-3-3-3-3-3-3-3-3-3-3|
E|-5-5-5-5-5-5-5-5-5-5-5-5-5-5-5-1-1-1-1-1-1-1-1-1-1-1-1-1-1-1|






Guitar 2 - Lead Part (In Verses. Listen The Song For The Part)

e|---------------------------------------------------------------|
B|---------------------------------------------------------------|
G|---------------------------------------------------------------|
D|-----------------------------------------------5-------------5-|          
A|---7-7---7-7-7-10--7-7---7-7-7-10--5-5---5-5-5---5-5---5-5-5---|          
E|---------------------------------------------------------------|          

e|-------------------------------------------------|
B|-------------------------------------------------|
G|-------------------------------------------------|
D|-------------------------------------------------|
A|---7-7---7-7-7-10--7-7---7-7-7-10--3-3---3-3-3~~-|
E|-------------------------------------------------|





(Play this during the chorus)

e|------------------------------------------------------------|
B|-----13-15-15/17-----13-15-13------13-15-13-----13-15-15/17-|
G|--14--------------14-----------14------------14-------------|
D|------------------------------------------------------------|
A|------------------------------------------------------------|
E|------------------------------------------------------------|

e|-----------------------------------------------------------|
B|----13-15-15/17------13-15-13-----13-15-13-----13-15-15/17-|
G|-14--------------14------------14-----------14-------------|
D|-----------------------------------------------------------|
A|-----------------------------------------------------------|
E|-----------------------------------------------------------|


ENJOY!!!