Joy Division - Disorder Text Guitar Tab

Learn the song with the online tablature player
intro/verse:
e|-------------------------------------|
B|-6-6-6-6--6-6-6-6--6-6-6-6--6-6-6-6--|
G|-------------------------------------|
D|8-8-8-8-----------8-8-8-8------------|
A|---------8-8-8-8-----------8-8-8-8---|
E|-------------------------------------|

e|-----------------------------------------------------------|
B|-----------------------------------------------------------|
G|3-5--3--5--3--5--5-5br\3-3--5-3-5--3--5--3--5--5-5br\3-3--5|
D|-----------------------------------------------------------|
A|-----------------------------------------------------------|
E|-----------------------------------------------------------|

e|-----------------------------------------|
B|-----------------------------------------|
G|7-8-8-7-8-7-8-8-7-7-8-8-8-10-10-10-10-10-|
D|-----------------------------------------|
A|-----------------------------------------|
E|-----------------------------------------|  (2x)

verse 3/outro:
e|----------------------------------|
B|----------------------------------|
G|3333333333333333-5555555555555555-|
D|3333333333333333-5555555555555555-|
A|1111111111111111-3333333333333333-|
E|----------------------------------|

ends on:
e|-----|
B|-----|
G|--3--|
D|--3--|
A|--1--|
E|-----|