Joyce Manor - Beach Community Text Guitar Tab

Learn song with the online tabulature player
-------------------------------------------------------------------------------
                             Beach Community – Joyce Manor
-------------------------------------------------------------------------------

Tabbed By : thetot
Tuning: Standard
Intro(x2)
G|-----------------------------------------------------------------------------|
D|-------------6-6-6---------6-------------------------------------------------|
A|-----7-7-7---------7-7-7----7-6-4-4-4-4-4-4-4-4-4-2-4-2----------------------|
E|-----------------------------------------------------------------------------|
(x2)
G|-----------------------------------------------------------------------------|
D|-----------------------------------------------------------------------------|
A|-----------------------------------------------------------------------------|
E|------0-0-0-0-0-0-0-0-0-0-0-0-5-5-5-5-5-5-5-5-5-5-5-5------------------------|

G|-----------------------------------------------------------------------------|
D|-------------2-2-2---------2------2-2-2--------------------------------------|
A|-----4-4-4---------4-4-4----4-2----------0-0-0-4-4-4-2-2-2-------------------|
E|-----------------------------------------------------------------------------|
(x4)
G|-----------------------------------------------------------------------------|
D|-------------------------------------2-2-2-2-2-2-2-2-2-2-2-2-----------------|
A|------4-4-4-4-4-4-4-4-4-4-4-4------------------------------------------------|
E|-----------------------------------------------------------------------------|

G|-----------------------------------------------------------------------------|
D|-----------------------------------------------------------------------------|
A|------4-4-4-4-4-4-4-4-4-4-4-4-2-2-2-2-2-2-2-2-2-2-2-2------------------------|
E|-----------------------------------------------------------------------------|
(x4)
G|-----------------------------------------------------------------------------|
D|-----2-2-2-2-2-2-2-----------------------------------------------------------|
A|------------------------2-2-2-2-2-4-4-4-4-4-4-0-0-0-0-0-0--------------------|
E|-----------------------------------------------------------------------------|
(x1)
G|------------------------------------------------------------------------------|
D|--------------2-2-2---------2------2-2-2-2-2-2-2-2-2-2-2-2--------------------|
A|------4-4-4---------4-4-4----4-2----------------------------------------------|
E|------------------------------------------------------------------------------|
(x1)
G|------------------------------------------------------------------------------|
D|----------------2-2-2---------2-----2-----------------------------------------|
A|--------4-4-4---------4-4-4-----4-----2-2-2-2-2-2-2-2-2-2-2-2-----------------|
E|------------------------------------------------------------------------------|

G|---------------------------------------------------------------------------|
D|---------------------------------------------------------------------------|
A|---------------------------------------------------------------------------|
E|----------0-----------0---------5---------4-----------0--------------------|