Juan Dela Cruz Band - Kagatan Text Guitar Tab

Learn song with the online tabulature player
... Kagatin mo, wag mong lubayan. Pukpukin mo, durugin mo. Rakrakan na!!!
 
Note: Tabs are for E, but recorded version is in Eb-Ab-Db-Gb
 
Intro: 
|----------|
|----------|
|-7-7-7-5\-|
|----------| 3x
 
|------------|-----------|-------------------|
|-------7-9--|-------5---|-------5-----------|
|---7-9------|---5-7---7-|---5-7---7---555h7-|
|-7----------|-7---------|-7---------7-------|
 
Verse:
Laklakin mo hanggang gusto mo....
|----------|----------|----------|----------|----------|----------|----------|----------|
|----------|----------|----------|----------|----------|----------|----------|----------|
|-77777777-|-77777777-|-77777777-|-77777777-|----------|-77777777-|----------|-77777777-|
|----------|----------|----------|----------|-55555555-|----------|-55555555-|----------|
 
|------------|-----------|-------------------|
|-------7-9--|-------5---|-------5-----------|
|---7-9------|---5-7---7-|---5-7---7---555h7-|
|-7----------|-7---------|-7---------7-------|
 
Verse:
Kagatin mo, wag mong lubayan....
|----------|----------|----------|----------|----------|----------|----------|----------|
|----------|----------|----------|----------|----------|----------|----------|----------|
|-77777777-|-77777777-|-77777777-|-77777777-|----------|-77777777-|----------|-77777777-|
|----------|----------|----------|----------|-55555555-|----------|-55555555-|----------|
|---------------|
|-------5-------|
|-7h5h7---7h5h7-|
|---------------| 4x
 
Bridge (Intro pattern):
|----------|
|----------|
|-7-7-7-5\-|
|----------| 3x
 
|------------|-----------|-------------------|
|-------7-9--|-------5---|-------5-----------|
|---7-9------|---5-7---7-|---5-7---7---555h7-|
|-7----------|-7---------|-7---------7-------|
 
Ad lib: (Ito ang masayang parte. Imbentuhin mo na lang diskarte mo. Eto ang akin.)
|----------|----------|----------|----------|----------|----------|----------|----------|
|----------|----------|----------|----------|----------|----------|----------|----------|
|-77777777-|-77777777-|----------|---45777--|----------|-777777---|---457755-|---457-45-|
|----------|----------|-55555555-|-55-----7-|-55555555-|-------87-|-55-------|-77---7---|
 
|----------|----------|----------|--9-8-7-6-|----------|----------|----------|----------|
|----------|----------|----------|(SPSPSPSP)|----------|----------|----------|----------|
|-77777777-|-77777777-|----------|-7-6-5-4--|----------|-777777---|---457755-|---457-45-|
|----------|----------|-55555555-|----------|-55555555-|-------87-|-55-------|-77---7---|repeat 3x
 
|---------------|
|-------5-------|
|-7h5h7---7h5h7-|
|---------------| 4x
 
Bridge (Intro pattern):
|----------|
|----------|
|-7-7-7-5\-|
|----------| 3x
 
|------------|-----------|-------------------|
|-------7-9--|-------5---|-------5-----------|
|---7-9------|---5-7---7-|---5-7---7---555h7-|
|-7----------|-7---------|-7---------7-------|
 
Verse:
Laklakin mo hanggang gusto mo....
|----------|----------|----------|----------|----------|----------|----------|----------|
|----------|----------|----------|----------|----------|----------|----------|----------|
|-77777777-|-77777777-|-77777777-|-77777777-|----------|-77777777-|----------|-77777777-|
|----------|----------|----------|----------|-55555555-|----------|-55555555-|----------|
 
|------------|-----------|-------------------|
|-------7-9--|-------5---|-------5-----------|
|---7-9------|---5-7---7-|---5-7---7---555h7-|
|-7----------|-7---------|-7---------7-------|
 
Verse:
Kagatin mo, wag mong lubayan....
|----------|----------|----------|----------|----------|----------|----------|----------|
|----------|----------|----------|----------|----------|----------|----------|----------|
|-77777777-|-77777777-|-77777777-|-77777777-|----------|-77777777-|----------|-77777777-|
|----------|----------|----------|----------|-55555555-|----------|-55555555-|----------|
 
|------------|-----------|-------------------|
|-------7-9--|-------5---|-------5-----------|
|---7-9------|---5-7---7-|---5-7---7---555h7-|
|-7----------|-7---------|-7---------7-------|
 
|---------------|
|-------5-------|
|-7h5h7---7h5h7-|
|---------------| 3x
 
|-----------|
|-------5---|
|-7h5h7---7-|
|-----------|