Juan Dela Cruz Band - Kahit Na Anong Mangyari Text Guitar Tab

Learn song with the online tabulature player
Intro:
G|-----7---------|-----7------|-----7---------|-----|
D|-7h9---9-7-----|-7h9---9-7b-|-7h9---9-7-----|-----|
A|-----------9-5-|------------|-----------9-5-|-8-7-|
E|---------------|------------|---------------|-----|

Pre-Chorus:
G|-------------------------|
D|-------------------------|
A|-5-----------------------|
E|-----6---3---55555---12\-|

Chorus:
G|-----------------------|-----------------------|
D|-----------------------|-----------------------|
A|-5-5-(5)-5-(5)-5-(5)-5-|-----------------------|
E|-----------------------|-5-5-(5)-5-(5)-5-(5)-5-| 2x

G|-----------------------|-----------------------|--------------5-----3---|
D|-----------------------|-----------------------|-----------5h7---3h5----|
A|-----------------------|-----------------------|----------------------5-|
E|-3-3-(3)-3-(3)-3-(3)-3-|-5-5-(5)-5-(5)-5-(5)-5-|-6-6-6-6----------------|

Verse:
G|-----------------------|-----------------------|
D|-----------------------|-----------------------|
A|-----------------------|-----------------------|
E|-3-3-(3)-3-(3)-3-(3)-3-|-3-3-(3)-3-(3)-3-(3)-3-|

G|-----------------------|-----------------------|
D|-----------------------|-----------------------|
A|-----------------------|-----------------------|
E|-3-3-(3)-3-(3)-3-(3)-3-|-5-5-(5)-5-(5)-5-(5)-5-|

G|-----------------------|-----------------------|
D|-----------------------|-----------------------|
A|-----------------------|-----------------------|
E|-3-3-(3)-3-(3)-3-(3)-3-|-3-3-(3)-3-(3)-3-(3)-3-|

G|-----------------------|---------|
D|-----------------------|---------|
A|-----------------------|---------|
E|-3-3-(3)-3-(3)-3-(3)-3-|-5-5-5-5-|

Pre-Chorus:
G|-------------------------|
D|-------------------------|
A|-5-----------------------|
E|-----6---3---55555---12\-|

Chorus:
G|-----------------------|-----------------------|
D|-----------------------|-----------------------|
A|-5-5-(5)-5-(5)-5-(5)-5-|-----------------------|
E|-----------------------|-5-5-(5)-5-(5)-5-(5)-5-| 2x

G|-----------------------|-----------------------|--------------5-----3---|
D|-----------------------|-----------------------|-----------5h7---3h5----|
A|-----------------------|-----------------------|----------------------5-|
E|-3-3-(3)-3-(3)-3-(3)-3-|-5-5-(5)-5-(5)-5-(5)-5-|-6-6-6-6----------------|

Verse:
G|-----------------------|-----------------------|
D|-----------------------|-----------------------|
A|-----------------------|-----------------------|
E|-3-3-(3)-3-(3)-3-(3)-3-|-3-3-(3)-3-(3)-3-(3)-3-|

G|-----------------------|-----------------------|
D|-----------------------|-----------------------|
A|-----------------------|-----------------------|
E|-3-3-(3)-3-(3)-3-(3)-3-|-5-5-(5)-5-(5)-5-(5)-5-|

G|-----------------------|-----------------------|
D|-----------------------|-----------------------|
A|-----------------------|-----------------------|
E|-3-3-(3)-3-(3)-3-(3)-3-|-3-3-(3)-3-(3)-3-(3)-3-|

G|-----------------------|---------|
D|-----------------------|---------|
A|-----------------------|---------|
E|-3-3-(3)-3-(3)-3-(3)-3-|-5-5-5-5-|

Pre-Chorus:
G|-------------------------|
D|-------------------------|
A|-5-----------------------|
E|-----6---3---55555---12\-|

Chorus:
G|-----------------------|-----------------------|
D|-----------------------|-----------------------|
A|-5-5-(5)-5-(5)-5-(5)-5-|-----------------------|
E|-----------------------|-5-5-(5)-5-(5)-5-(5)-5-| 2x

G|-----------------------|-----------------------|--------------5-----3---|
D|-----------------------|-----------------------|-----------5h7---3h5----|
A|-----------------------|-----------------------|----------------------5-|
E|-3-3-(3)-3-(3)-3-(3)-3-|-5-5-(5)-5-(5)-5-(5)-5-|-6-6-6-6----------------|

Adlib:
G|-----------------------|-----------------------|
D|-----------------------|-----------------------|
A|-----------------------|-----------------------|
E|-3-3-(3)-3-(3)-3-(3)-3-|-3-3-(3)-3-(3)-3-(3)-3-|

G|-----------------------|-----------------------|
D|-----------------------|-----------------------|
A|-----------------------|-----------------------|
E|-3-3-(3)-3-(3)-3-(3)-3-|-5-5-(5)-5-(5)-5-(5)-5-|

G|-----------------------|-----------------------|
D|-----------------------|-----------------------|
A|-----------------------|-----------------------|
E|-3-3-(3)-3-(3)-3-(3)-3-|-3-3-(3)-3-(3)-3-(3)-3-|

G|-----------------------|---------|
D|-----------------------|---------|
A|-----------------------|---------|
E|-3-3-(3)-3-(3)-3-(3)-3-|-5-5-5-5-|

G|-----7---------|-----7------|-----7---------|-----|
D|-7h9---9-7-----|-7h9---9-7b-|-7h9---9-7-----|-----|
A|-----------9-5-|------------|-----------9-5-|-8-7-|
E|---------------|------------|---------------|-----|

Pre-Chorus:
G|-------------------------|
D|-------------------------|
A|-5-----------------------|
E|-----6---3---55555---12\-|

Outro: Repeat Chorus 5x to fade