Juanes - La Soledad Text Guitar Tab

Learn song with the online tabulature player
Intro:
|-----0--------------0---------|
|---1---1---1------0---0---0---|
|--2-----2---2---0-------0---0-|
|------------------------------|
|-0------------0---------------|
|------------------------------|

|-------------------------------|
|-------3--------------3--------|
|-----2---2---2------1---1--1---|
|---3-------3---3---2-----2---2-|
|-0-----------------------------|
|-----------------0-------------|

Guitarra 2:
 Dm    G    C    Am
|---------------------------------------------|
|---6~---3~---5~---1~---1/3-3-3/5-3-1-3/5-3~--|
|-7----4----5----2------2/4-4-4/5-4-2-4/5-4~--|
|---------------------------------------------|
|---------------------------------------------|
|---------------------------------------------|

 Am               A
|--------------------------------------------|
|-5-------5----------------------------------|
|--5-5p2---5-5p2--6-5-5p2--6-5-5p2-----------|
|----------------------------------5-2-------|
|--------------------------------------5-0---|
|--------------------------------------------|

Verses: Dm G C Am E7/B E7 Am A
Chorus: Am E7

E7
|-0----|
|-0----|
|-1----|
|-0----|
|-2----|
|-0----|