Juanes - Un Dia Normal Text Guitar Tab

Learn the song with the online tablature player
Un Dia Normal - Juanes

this is the intro to the song.
this part sounds better if you play it with an electric guitar:

e|---------------|---------------|---------------|
b|------------3--|------------3--|------------3--|
g|------4--2-----|------2--------|------0--------|
d|---5-----------|---4-----4-----|---2-----2-----|
a|---------------|---------------|---------------|
e|---------------|---------------|---------------|

e|---------------|---------------|---------------|
b|------------3--|------------3--|------------3--|
g|---------0-----|------4--2-----|------2--------|
d|---0--4--------|---5-----------|---4-----4-----|
a|---------------|---------------|---------------|
e|---------------|---------------|---------------|

e|---------------|---------------|
b|------------3--|------------3--|
g|------0--------|---------0-----|
d|---2-----2-----|---0--4--------|
a|---------------|---------------|
e|---------------|---------------|