Juke Kartel - Throw It Away Text Guitar Tab

Learn song with the online tabulature player
Throw It Away By Juke Kartel

Tabbed By Yakreig

Hey this is my second tab so go easy on the comments please :)

Intro

Guitar 1

|------------------------------------|
|------------------------------------|
|------------8-----------------------|
|---6-9-8-6-----6---6---6---9-9-8----|
|-----------------9---9--------------|
|------------------------------------|

Guitar 2

|----------------------|
|----------------------|
|----------6-----------|   Figure Out The Rythmn 
|---2------6-----------|
|---2------4-----------| 
|---0------------------|


Verse Part 1

|-----------------------------------------------------------------------|
|-----------------------------------------------------------------------|
|-----------------------------------------------------------------------|
|---6-6-6----6-6-6----6-6-6----9-9-9----2-2-2----2-2-2----2-2-2----4-4-4|
|---6-6-6----6-6-6----6-6-6----9-9-9----2-2-2----2-2-2----2-2-2----4-4-4|
|---4-4-4----4-4-4----4-4-4----7-7-7----0-0-0----0-0-0----0-0-0----2-2-2|

Verse Part 2

|--------------------------------------------------------------------|
|--------------------------------------------------------------------|
|--------------------------------------------------------------------|
|---6-6-6----6-6-6----6-6-6----9-9-9----2-2-2----2-2-2----2-2-2----4-|
|---6-6-6----6-6-6----6-6-6----9-9-9----2-2-2----2-2-2----2-2-2----4-|
|---4-4-4----4-4-4----4-4-4----7-7-7----0-0-0----0-0-0----0-0-0----2-|
  
                          ^    ^
                   This Is All Palm Muted 

Pre-Chorus

|-----------------------------------|
|-----------------------------------|
|---6-6-6----6-6-6----6-6-6----6-6-6|
|---6-6-6----6-6-6----6-6-6----6-6-6|
|---4-4-4----4-4-4----4-4-4----4-4-4| 
|-----------------------------------|

Chorus

Guitar 1

|------------------------------------|
|------------------------------------|
|------------8-----------------------|
|---6-9-8-6-----6---6---6---9-9-8----|
|-----------------9---9--------------|
|------------------------------------|

Guitar 2

|----------------------------|
|----------------------------|
|--------6-----2----4--------|
|---2----6-----2----4----2---| Figure Out The Rythmn 
|---2----4-----0----2----2---| 
|---0--------------------0---|

Verse 2 Part 1

Guitar 1

|----------------------|
|----------------------|
|---8----11------------|   Figure Out The Rythmn 
|---8----11------------|
|---6----9-------------| 
|----------------------|

Guitar 2

|----------------------|
|----------------------|
|----------------------|   Figure Out The Rythmn 
|---2-2-2-2---4-4------|
|---2-2-2-2---4-4------| 
|---0-0-0-0---2-2------|


Verse 2 Part 2

|--------------------------------------------------------------------|
|--------------------------------------------------------------------|
|--------------------------------------------------------------------|
|---6-6-6----6-6-6----6-6-6----9-9-9----2-2-2----2-2-2----2-2-2----4-|
|---6-6-6----6-6-6----6-6-6----9-9-9----2-2-2----2-2-2----2-2-2----4-|
|---4-4-4----4-4-4----4-4-4----7-7-7----0-0-0----0-0-0----0-0-0----2-|
  
                          ^    ^
                   This Is All Palm Muted 

Pre-Chorus

|-----------------------------------|
|-----------------------------------|
|---6-6-6----6-6-6----6-6-6----6-6-6|
|---6-6-6----6-6-6----6-6-6----6-6-6|
|---4-4-4----4-4-4----4-4-4----4-4-4| 
|-----------------------------------|

Chorus

Guitar 1

|------------------------------------|
|------------------------------------|
|------------8-----------------------|
|---6-9-8-6-----6---6---6---9-9-8----|
|-----------------9---9--------------|
|------------------------------------|

Guitar 2

|----------------------------|
|----------------------------|
|--------6-----2----4--------|
|---2----6-----2----4----2---| Figure Out The Rythmn 
|---2----4-----0----2----2---| 
|---0--------------------0---|

Breakdown

Both Guitars

|-------------------------------------------|
|-------------------------------------------|
|-------------------------------------------|
|---4-/-6-6---4-/-6-6---4-/-6-6---4-/-6-6---|
|---4-/-6-6---4-/-6-6---4-/-6-6---4-/-6-6---| 
|---2-/-4-4---2-/-4-4---2-/-4-4---2-/-4-4---|

Then

|------------------------------------|
|------------------------------------|
|------------8-----------------------|
|---6-9-8-6-----6---6---6---9-9-8----|
|-----------------9---9--------------|
|------------------------------------|

           ^ Palm Muted ^


Pre Chorus

|------------------------------------|
|------------------------------------|
|---x-x-x---x-x-x---x-x-x------------|
|---x-x-x---x-x-x---x-x-x------------|
|---x-x-x---x-x-x---x-x-x------------|  (Do To Drum Beat)
|------------------------------------|

Chorus

Guitar 1

|------------------------------------|
|------------------------------------|
|------------8-----------------------|
|---6-9-8-6-----6---6---6---9-9-8----|
|-----------------9---9--------------|
|------------------------------------|

Guitar 2

|----------------------------|
|----------------------------|
|--------6-----2----4--------|
|---2----6-----2----4----2---| Figure Out The Rythmn 
|---2----4-----0----2----2---| 
|---0--------------------0---|

Ending

Both Guitars

|-------------------------------|
|-------------------------------|
|-------6-----------------------|
|---6-6---9-6-9-8-6-8-6-6-4-6---| 
|-------------------------------| 
|-------------------------------|