Juli - Wer Von Euch Text Guitar Tab

Learn song with the online tabulature player
e ----------------------------------------------------|
b ----1-----1----1-0----0-----0-(1)-------------------|
g ----------------------------------------------------|
d 3-3---3-3---3-----3-3---3-3-------------------------|
a ----------------------------------------------------|
e ----------------------------------------------------|


e ----------------------------------------------------|
b ----0-----0---0-------------------------------------|
g ---------------------2----2---2---------------------|
d ----------------------------------------------------|
a 0-0---0-0---0---0-0---0-0---0-----------------------|
e ----------------------------------------------------|


e ----------------------------------------------------|
b ----1-----1----1-0----0-----0-(1)-------------------|
g ----------------------------------------------------|
d 3-3---3-3---3-----3-3---3-3-------------------------|
a ----------------------------------------------------|
e ----------------------------------------------------|


e ---------------------------------------------------|
b ----0-----0---0-----0-----0---0--------------------|
g ---------------------------------------------------|
d ---------------------------------------------------|
a 0-0---0-0---0--------------------------------------|
e ----------------3-3---3-3---3----------------------|