Julia Nunes - Into The Sunshine Text Guitar Tab

Learn song with the online tabulature player
-------------------------------------------------------------------------------
                             Into The Sunshine - Julia Nunes
-------------------------------------------------------------------------------
Tabbed by: rockieraccoon13
Email: luckycomet07@hotmail.com

All credit to elmosbud21 on youtube: http://www.youtube.com/watch?v=KVKOb-5lht4

Tuning: Standard

Capo on 2nd Fret

Verses
       C          ?           Am          G
e|---------------------------------------------------------------------------------|
B|-----1----------1-----------1-----------3----------------------------------------|
G|----------------------------2----------------------------------------------------|
D|-----2----------------------2----------------------------------------------------|
A|-----3----------2-----------------------2----------------------------------------|
E|----------------------------------------3----------------------------------------|


Chorus
        C           G            F
e|------------------3------------1------------------------------------------------|
B|------1-----------3------------1------------------------------------------------|
G|------------------4------------2------------------------------------------------|
D|------2-----------5------------3------------------------------------------------|
A|------3-----------5------------3------------------------------------------------|
E|------------------3------------1------------------------------------------------|

Just switch back and forth. The strumming pattern has a lot of mutes. If you can't get 
pattern down-no worries. It doesn't sound bad without em.


| /  slide up
| \  slide down
| h  hammer-on
| p  pull-off
| ~  vibrato
| +  harmonic
| x  Mute note
===============================================================================