Juliette And The Licks - Sticky Honey Text Guitar Tab

Learn song with the online tabulature player
Okay, this is my first tab so im getting use to all this. If you have any questions or 
my e-mail is bassist6777@hotmail.com

[Figure A]
G|-------------------------|------------------------------|
D|-------------------------|------------------------------|
A|-3--3--------------------|x3--3--3-7--7-9-9-9-9-9-9-9-9-|
E|------2--2--5--5-7-7-5-7-|------------------------------|


[Figure B]
G|---------------------------------------------------------------|
D|---------------------------------------------------------------|
A|---------------------------------------------------------------|x3 then
E|-2-2-2-2-2-2-2-2-5-5-5-5-5-5-5-5-0-0-0-0-0-0-0-0-2-1-0-0-2-1-0-|   play

G|------------------------------------------------|
D|------------------------------------------------|
A|-3--3------------------3--3-7--7-9-9-9-9-11-9-7-|
E|------2--5--5-7-7-5-7---------------------------|


Repeat Figure A

Repeat Figure B then play this on  the 4th time


G|--------------------------------------------------------------|
D|--------------------------------------------------------------|
A|--------------------------------------------------------------|
E|-2-2-2-2-2-2-2-2-5-5-5-5-5-5-5-5-0-0-0-0-0-0-0-0-2-1-0-0-2-2-2|

G|------------------------------------------------|
D|------------------------------------------------|
A|------------------------------------------------|x3 on the 4th
E|-2--2--22222--5--5--5555--0--0--0000--0--0--0012|   play

G|------------|
D|------------|
A|------------|
E|2--2--2222-5|


Break


G|-----------------|---------------------|
D|-----------------|---------------------|
A|-9-9-9-9-9-9-9-9-|then repeat Figure B-|
E|-----------------|---------------------|

G|-------------------------------------------------|-----------|
D|-------------------------------------------------|-----------|x3
A|-------------------------------------------------|-----------|
E|-2-2-2-2-2-2-2-2-5-5-5-5-5-5-5-5-0-0-0-0-0-0-0-0-|-1-1-2-3-4-|

G|-----------|
D|-----------|
A|-----------|
E|-4-4-3-2-1-|

I hope this is as accurate as I think it is. If it isn't tell me and i'll try to fix it. 
fun with it. ;)