Junior Murvin - Police And Thieves Text Guitar Tab

Learn song with the online tabulature player
Title - Police and Thieves
Artist - Junior Murvin

Tabbed by - mattydread2@gmail.com
            mattydread2@gmail.com

intro x 4
G|-------------|
D|-------------|
A|---------3-5-|
E|-33335-------|


verse/chorus x 6
G|-----------------------------|
D|-----------------------------|
A|--------75-7------------75-7-|
E|-33333-----------55555-------|


bridge
G|----------------------------|
D|--------9-7-----------------|
A|------------9---------777---|
E|-77777------------5555----5-|

G|----------------------------|
D|--------9-7-----------------|
A|------------9---------777---|
E|-77777------------5555----5-|

G|----------------------------|
D|--------9-7-----------------|
A|------------9---------777---|
E|-77777------------5555----5-|

G|----------------------------|
D|----------------------------|
A|---------7------55555-------|
E|-88888,10--8-----------87-5-|

repeat verse/chorus

repeat bridge

play out on verse/chorus

Find Junior Murvin; http://en.wikipedia.org/wiki/Junior_Murvin