Justice - The Party Text Guitar Tab

Learn song with the online tabulature player
heres a nice easy justice tune which features uffie! << I would ! 
nothing to hard but most of it is slaped and it is played in drop
D but il show you normal tuning aswell :D 

bass kicks in at (1:53)

|--------------------|--------------------|--------------------|
|---2----------2-----|---4----------4-----|---7----------7-----|
|--------------------|--------------------|--------------------|
|-0---0-0----0---0-0-|-2---2-2----2---2-2-|-5---5-5----5---5-5-|
  t p t t    t p t t   t p t t    t p t t   t p t t    t p t t 

|---5----------5-----|---7----------7-----|
|--------------------|--------------------|
|-3---3-3----3---3-3-|-5---5-5----5---5-5-|
|--------------------|--------------------|
  t p t t    t p t t   t p t t    t p t t 

the song is played in drop D so here it is in drop D if you want to 
play it like on the song :D

drop D tuning 
G|
D|
A|
D|

|--------------------|--------------------|---2----------2-----|
|---2----------2-----|---4----------4-----|--------------------|
|--------------------|--------------------|-0---0-0----0---0-0-|
|-2---2-2----2---2-2-|-4---4-4----4---4-4-|--------------------|
  t p t t    t p t t   t p t t    t p t t   t p t t    t p t t

|---5----------5-----|--------------------|
|--------------------|---0----------0-----|
|-3---3-3----3---3-3-|--------------------|
|--------------------|-0---0-0----0---0-0-|
  t p t t    t p t t   t p t t    t p t t 

and thats it. most of the song is just repeated over and over again.
But there is some pauses inbetween notes and riffs.

enjoy :D