Justin Bieber - Baby Acoustic Text Guitar Tab

Learn song with the online tabulature player
Chords are in order of usage.  Listen to the acoustic version 
for accurate strum patterns and timing.  This is without a doubt 
the correct way it is played by Dan in that video.

Intro/Verse
e|------------------------------------------------------------|
B|------------------53----75----------------------------------|
G|-11-1211--7-77--4-44--6-66--6~------------------------------|
D|-12-1212--4-44--5-55--7-77--7~------------------------------|
A|-x--------x-----x-----x-----0~------------------------------|
E|-10-------7-----3-----5-------------------------------------|

       This is only used sometimes
 in transition to the next chord
       during the verse
            |
e|----------|-------------------------------------------------|
B|----------|-----------53----75------------------------------|
G|-11-1211-(9)-7-77--4-44--6-66--6~---------------------------|
D|-12-1212-(x)-4-44--5-55--7-77--7~---------------------------|
A|-x-------(7)-x-----x-----x-----0~---------------------------|
E|-10------(9)-7-----3-----5----------------------------------|


Chorus:
D Bm G A

Thats it, enjoy.