Justin Bieber - Down To Earth Acoustic Text Guitar Tab

Learn the song with the online tablature player
                        Down To Earth - Justin Bieber

INTRO
                 x2
     |-------------------|                               Repeat until Chorus
e|------------------0--------------------------------------------------0-------|
B|--1-----1---3-----------0--------0---1------3------0----0-----1------1-------|
G|----0----------0-------------0----------0------------------------------------|
D|-----------------------------------------------------------------------------|
A|--3--------------------------------------------------------------------------|
E|------------------------3--------------------------3-------------------------|

CHORUS

Chords

      C Major                    G Major                   A Minor
   |------------|             |-----------|            |------------|
e|---------0------------------------3------------------------0------------------|
B|---------1------------------------0------------------------1------------------|
G|---------0------------------------0------------------------2------------------|
D|---------2------------------------0------------------------2------------------|
A|---------3------------------------2------------------------0------------------|
E|---------0------------------------3------------------------0------------------|
A Minor lasts for 2 bars (8 counts)

| /   slide up
| \   slide down
| h   hammer-on
| p   pull-off
| ~   vibrato
| +   harmonic
| x   Mute note
| b   Bend
| pb  Pre-bend
| br  Bend release
| pbr Pre-bend release
| brb Bend release bend

C                           G
So its up to to you and its up to me
               Am
That we meet in the middle
                        C
On our way back down to earth
          G             Am
Down to earth down to earth
                         C
On our way back down to earth

"Ooooh ho oahh..." (The regular picking pattern continues from here)

C                           G
So its up to to you and its up to me
               Am
That we meet in the middle
                        C
On our way back down to earth
          G             Am
Down to earth down to earth
                         C
On our way back down to earth
          G
Ooooh ho oahh
          Am
Woah wooh ho oh
           Am
Oooooowh

"We fell so far away from where we used to be"   (The regular picking pattern continues from here)

C                           G
So its up to to you and its up to me
               Am
That we meet in the middle
                        C
On our way back down to earth
          G             Am
Down to earth down to earth
                         C
On our way back down to earth

"I never thought that it be easy"    (The regular picking pattern continues from here)