Justin Bieber - Pray Text Guitar Tab

Learn song with the online tabulature player
This is my first tab, I figured it out by myself, message me if any mistakes or anything 
or a request for a song:)


I just can't sleep tonight
0---------------------------|
---0----2-----------0-------|
---------------2-------2----|
----------------------------|
----------------------------|
----------------------------|
Knowing that things ain't right
-0-----------------------------|
----0----2-----------0---------|
---------------2------------2--|
-------------------------------|
-------------------------------|
-------------------------------|

It's in the papers it's on the TV it's everywhere that I go
-0---0---0--0--2--------------------------------------------|
--------------------0----0--0--02---------------------------|
------------------------------------------------------------|
------------------------------------------------------------|
------------------------------------------------------------|
------------------------------------------------------------|
Children are crying, soldiers are dying, some people don't have a home