K.C. And The Sunshine Band - Get Down Tonight Text Guitar Tab

Learn song with the online tabulature player
wait till guitar solo is over then play.

G----------------3--4---------------------]
D-----------------------------------------] X4
A-3-3-3-3-33-3-1--2-----------------------]
E-----------------------------------------]

G-----------------------------------------]
D-----------------------------------------] X2
A--------------------11-3-3-3-3-33--33----]
E--3--33-33--1--11------------------------]


G----------------3--4---------------------]
D-----------------------------------------] X4
A-3-3-3-3-33-3-1--2-----------------------]
E-----------------------------------------]

"do a little dance"
G-----------------------------------------]
D-----------------------------------------] X3
A--------------------11-3-3-3-3-33--33----]
E--3--33-33--1--11------------------------]


G----------------3--4---------------------]
D-----------------------------------------] X15
A-3-3-3-3-33-3-1--2-----------------------]
E-----------------------------------------]

Ricky

    Bass Tabist