Kaiser Chiefs - Caroline Yes Text Guitar Tab

Learn song with the online tabulature player
Not much guitar in this. (Except bass)

E-----------------------------------------------------------------------------|
B-----------------------------------------------------------------------------|
G-----------------------------------------------------------------------------|
D-----------------------------------------------------------------------------|
A-----------------------------------------------------------------------------|
E-5---------3----0-2-3-2---0--------------------------------------------------|


Solo

E-------------------------------------------------------------|
B-------------------------------------------------------------|
G-------------------------------------------------------------|
D-------------------------------------------------------------|
A---------------3-2-0------------------3-2-0------------------|
E-0-0-2-3-2-3-2----------0-0-2-3-2-3-2------------------------|

E-------------------------------------------------------------|
B-------------------------------------------------------------|
G-------------------------------------------------------------|
D-------------------------------------------------------------|
A---------------3-2-0----2-0---------2-3--2--0---0----0-------|
E-0-0-2-3-2-3-2--------------------------------3----3----3--0-|