Kaizers Orchestra - Hjerteknuser Text Guitar Tab

Learn song with the online tabulature player
Intro:
Eb, Cm, Gm, F, Eb, Cm goes in the background

E   |---x----------------------------------------------|
H   |---x-------------------------11-------10----------|
G   |--12---10------10-----------12-------10-----------|
D   |--13-----12------12---------12--x7---10--x5-------|
A   |--13--------13-----13--(12)--10-------8-----------|
E   |--11----------------------------------------------|

E   |---x--------------------------|I
H   |---x--------------------------|I
G   |--12---10------10-------------|I
D   |--13-----12------12-----------|I   ends on a Gm and the verse starts
A   |--13--------13-----13--(12)---|I
E   |--11--------------------------|I


Gm   Bb   F   Eb   Cm   cm/Bbm/Am/Gm and so on