Kakkmaddafakka - Restless Text Guitar Tab

Learn song with the online tabulature player
-----------------------------------------------------------------------------
                        Restless - Kakkmaddafakka
-----------------------------------------------------------------------------


www.kakkmaddafakka.com
www.myspace.com/kakkmaddafakka

Tabbed By : Waswares

Tuning: Standard

Intro:

G|----------------------------------------------------|
D|----------------------------------------------------|
A|---------------------22-4-22-2-22-4-2-44-20---------|
E|-0-2-0-22-5-2-55-7-5------------------------2-0-22--|

Verse:

G|---------------------------------------------|
D|---------------------------------------------|
A|--------------22-4-22-2-22-4-2-44-20---------|
E|22-5-2-55-7-5------------------------2-0-22--|

G|------------------4---6---------|
D|---4---7------------------------|
A|---------2-0-22-22--44----------|
E|-22--55-----------------2-0-22--|

Refrain:

G|------------------------------------|
D|-44444444---------------------------|
A|---------5555555555555-44-22222222--|
E|------------------------------------|

Verse:

G|---------------------------------------------|
D|---------------------------------------------|
A|--------------22-4-22-2-22-4-2-44-20---------|
E|22-5-2-55-7-5------------------------2-0-22--|

G|------------------4---6---------|
D|---4---7------------------------|
A|---------2-0-22-22--44----------|
E|-22—55-----------------2-0-22--|

Refrain:

G|------------------------------------|
D|-44444444---------------------------|
A|---------5555555555555-44-22222222--|
E|------------------------------------|

G|----------------------6----4---|
D|-------------------------------|
A|-------------------444--222-2--|
E|-22-0-2-0-22-0-2-0-------------|

Refrain:

G|------------------------------------|
D|-44444444---------------------------|
A|---------5555555555555-44-22222222--|
E|------------------------------------|


| /  slide up
| \  slide down
| h  hammer-on
| p  pull-off
| ~  vibrato
| +  harmonic
| x  Mute note
===============================================================================