Kamikazee - Meron Akong Ano Text Guitar Tab

Learn song with the online tabulature player
Meron akong ano-Kamikazee (cover song from Francis M.)

ah.wala.wala.wala.wala.wala.wala..

by 09283150081

FB/YM:f_sario@yahoo.com

SHC Lucena..

Intro-

GtrI
|-----------------------------------------------------|
|-----------------------------------------------------|
|-----------------------------------------------------|
|-----------------------------------------------------|2x
|-----------------------------------------------------|
|-0h2-222-000-0h3-333-555--0h2-222-000-0h3-333-555----|

then
GtrI
|-----------------------------------------------------|
|-----------------------------------------------------|
|-----------------------------------------------------|
|-----------------------------------------------------|4x
|-----------------------------------------------------|
|-0h2-222-000-0h3-333-555--0h2-222-000-0h3-333-555----|

GtrII
|-----------------------------------------------------|
|-----------------------------------------------------|
|-----------------------------------------------------|
|-----------------------------------------------------|4x
|-----4444-4444-5555-7777-----4444-4444-5555-7777-----|
|-----2222-0000-3333-5555-----2222-0000-3333-5555-----|


GtrI&II
|-----------------------------------------------------|
|-----------------------------------------------------|
|-----------------------------------------------------|
|-----------------------------------------------------|
|-3333-4444-5555-6-------3333-4444-5555-6-------------|
|-1111-2222-3333-4-------1111-2222-3333-4-------------|

|-----------------------------------------------------|
|-----------------------------------------------------|
|-----------------------------------------------------|
|-----------------------------------------------------|
|-3333-4444-5555-6-------3333-4444-5555-6---4--2~-----|
|-1111-2222-3333-4-------1111-2222-3333-4---2--0~-----|

then
GtrI
|-----------------------------------------------------|
|-----------------------------------------------------|
|----------------------/4444-xxx--/5555---------------|
|-----------------------------------------------------|
|----------------------/2222-xxx--/3333---------------|
|-0222-0222-0222-0222---------------------------------|
  **** **** **** ****


 Verse(do 2x)gtrI II
|-----------------------------------------------------|
|-----------------------------------------------------|
|-----------------------------------------------------|
|-----------------------------------------------------|
|--444--444--444--4-----------------------------------|
|-0222-0222-0222-02-----------------------------------|
  **** **** **** **

|-----------------------------------------------------|
|-----------------------------------------------------|
|-------------------xxx3/4444-xxx-4/5555--------------|
|-------------------xxx-------------------------------|
|--444--444--444--4-xxx1/2222-xxx-2/3333--------------|
|-0222-0222-0222-02-xxx-------------------------------|
  **** **** **** **

 Verse-

GtrI @ GtrII
|-----------------------------------------------------|
|-----------------------------------------------------|
|-------------------xxx3/4444-xxx-4/5555--------------|
|-------------------xxx-------------------------------|2x
|--444--444--444--4-xxx1/2222-xxx-2/3333--------------|
|-0222-0222-0222-02-xxx-------------------------------|

 then
|-----------------------------------------------------|
|-----------------------------------------------------|
|--------------------4~-------------------------4~----|
|-2~-------3~--------4~------2~-------3~--------4~----|
|-2~-------3~--------2~------2~-------3~--------2~----|
|-0~-------1~----------------0~-------1~--------------|

prechorus-
GtrI-
|-----------------------------------------------------|
|-----------------------------------------------------|
|-----------------------------------------------------|
|-----------------------------------------------------|2x
|-----------------------------------------------------|
|-0h2-222-000-0h3-333-555--0h2-222-000-0h3-333-555----|
GtrII
|-----------------------------------------------------|
|-----------------------------------------------------|
|-----------------------------------------------------|
|-4~-----------------------4--------4~----------------|
|-4~-----------------------4--------4~----------------|
|-2~-----------------------2--------2~----------------|

Chorus-

GtrI
|-----------------------------------------------------|
|-----------------------------------------------------|
|-----------------------------------------------------|
|-----------------------------------------------------|4x
|---4-444-444---5-555-777----4-444-444---5-555-777----|
|-0h2-222-000-0h3-333-555--0h2-222-000-0h3-333-555----|

GtrII
|-----------------------------------------------------|
|-----------------------------------------------------|
|-----------------------------------------------------|
|-----------------------------------------------------|4x
|-----4444-4444-5555-7777-----4444-4444-5555-7777-----|
|-----2222-0000-3333-5555-----2222-0000-3333-5555-----|

then
|-----------------------------------------------------|
|-----------------------------------------------------|
|-----------------------------------------------------|
|-----------------------------------------------------|
|-3333-4444-5555-6-------3333-4444-5555-6-------------|
|-1111-2222-3333-4-------1111-2222-3333-4-------------|

|-----------------------------------------------------|
|-----------------------------------------------------|
|-----------------------------------------------------|
|-----------------------------------------------------|
|-3333-4444-5555-6-------3333-4444-5555-6---4--2~-----|
|-1111-2222-3333-4-------1111-2222-3333-4---2--0~-----|

then
|-----------------------------------------------------|
|-----------------------------------------------------|
|---------------------3/4444-xxx-4/5555---------------|
|-----------------------------------------------------|
|---------------------1/2222-xxx-2/3333---------------|
|-0222-0222-0222-0222---------------------------------|
  **** **** **** ****

Do Verse to Chorus-

Interlude-

ian tayao:

nalunod sa lason murang salita binebentang kinang dinadayang mata akalay ginto puta tae 
pala sa tinurong hangin halika!!!

GtrI
|----------------------------------------|
|----------------------------------------|
|-999999-777777777-1212121212121212------|
|----------------------------------------|4x
|-777777-555555555-1010101010101010------|
|----------------------------------------|

GtrII
|----------------------------------------|
|----------------------------------------|
|----------------------------------------|
|-7-7-7-7-7-7-7-7-7-7-7-7-7-7-7-7--------|
|-5-5-5-5-5-5-5-5-5-5-5-5-5-5-5-5--------|
|----------------------------------------|

then-GtrI≫rII

Reg rubio:Matamis man sa pandinig! Parang bagong ihi ka kinikilig! Para maniwala sa 
naririnig! Parang tinalian lang ang iyong leeg Parang tinalian lang ang iyong leeg 
Parang lang sa!

|---------------------------------|
|---------------------------------|
|---------------------------------|
|-2-2-2-22-2-22-2-2----22-22-22---|
|-2-2-2-22-2-22-2-2----22-22-22---|
|-0-0-0-00-0-00-0-0----00-00-00---|

|-----------------------------------------------------|
|-----------------------------------------------------|
|-----------------------------------------------------|
|-2-2-2-22-2-22-2-2----22-22-22---22-22-22------------|
|-2-2-2-22-2-22-2-2----22-22-22---22-22-22------------|
|-0-0-0-00-0-00-0-0----00-00-00---00-00-00------------|

|-----------------------------------------------------|
|-----------------------------------------------------|
|-----------------------------------------------------|
|-2-2-2-22-2-22-2-2------2-2-2-22-2-22-2-2------------|
|-2-2-2-22-2-22-2-2------2-2-2-22-2-22-2-2------------|
|-0-0-0-00-0-00-0-0------0-0-0-00-0-00-0-0------------|


GtrI
|-----------------------------------------------------|
|------------------5~--7~--8-10-7-8~------------------|
|-9~--7~--5~---4~-------------------------------------|
|-9~--7~--5~---5~-------------------x-xxx-x-xxx-------|
|-7~--5~--3~---5~-------------------x-xxx-x-xxx-------|
|--------------3~-------------------x-xxx-x-xxx-------|

GtrI
|-0~--0~--0~---0~----0~--0~--0~-----------------------|
|-0~--0~--0~---0~----0~--0~--0~-----------------------|
|-9~--7~--5~--12~----9~--7~--5~-----------------------|
|-9~--7~--5~---x-----9~--7~--5~-x-xxx-x-xxx-----------|
|-7~--5~--3~--10~----7~--5~--3~-x-xxx-x-xxx-----------|
|-------------------------------x-xxx-x-xxx-----------|


Do verse-to chorus
GtrI&II

|-----------------------------------------------------|
|-----------------------------------------------------|
|-----------------------------------------------------|
|-44--44-44----44--44-44-----44--44-44---44--44-44----|
|-44--44-44----44--44-44-----44--44-44---44--44-44----|
|-22--22-22----22--22-22-----22--22-22---22--22-22----|


|-----------------------------------------------------|
|------------------------------------------4^~--------|
|-----------------------------------------------------|
|-----------------------------------------------------|
|-3333-4444-5555-6-------3333-4444-5555-6-------------|
|-1111-2222-3333-4-------1111-2222-3333-4-------------|

|-----------------------------------------------------|
|-----------------------------------------------------|
|-----------------------------------------------------|
|-----------------------------------------------------|
|-3333-4444-5555-6-------3333-4444-5555-6---4--2~-----|
|-1111-2222-3333-4-------1111-2222-3333-4---2--0~-----|
end


di ako sure sa lyrcs...pakipost ng tama...

“Meron akong... (Ano? )
Meron akong kwento!
Meron akong... (Ano?!!)
Meron akong kwento!
Meron akong... (ANOOO?!!! )
MERON AKONG KWENTO!!!
(AH, WALA,WALA, WALA, WALA, WALA!!!! )”

Pakinggan ninyo ang sinasabe ng labe
Isang (magaling)   na tulad ko ang nagmamay-are
haghahare upang kayong laht ay mamulat ,magulat
at yan naman ang dapat na mang yare
at wag ng magbakasakale kundi ililitsun kang luto sa kawale
kaliwat kanan ang gutong lumaban ng pustahan dadayain pa ng hasan
dahan dahan hindi mo ko maisahan
up and down side O 101 dela cruz are amused by the one who used
teka tagalog nga pala excuse! me,,,

i got busy kelangang pagpawisan ng mabuti

sige! magi sumayaw ka ng todo yumugyog sa tunog meron akong kwento(o yeah)



“Meron akong... (Ano? )
Meron akong kwento!
Meron akong... (Ano?!!)
Meron akong kwento!
Meron akong... (ANOOO?!!! )
MERON AKONG KWENTO!!!
(AH, WALA,WALA, WALA, WALA, WALA!!!! )”
(.......)
makinig sa daigdin ng ating musika
humga,tumunganga mula sa umpisa hanggang hule
ayan kase ANO???kelangang sumayaw at ng wag magbato rakrakan
at saka namin hinaluan punk and sold talagang ratratan
ganyan lang kung minsay nahihirapan
patay kung patay kapag naumpisahan ,,(the move make some move???)
ituloy ang ligaya (cuz i'm smooth)and we'll never make gaya...
sinung may sabe...)bakla ang kamikaze)..and (yow.ma man...yeah..)
swabeh..grabeh..yan na nga bang sinasabe...
lakasan mo pa at ihampas mo palage

sige! magi sumayaw ka ng todo yumugyog sa tunog meron akong kwento(o yeah)



“Meron akong... (Ano? )
Meron akong kwento!
Meron akong... (Ano?!!)
Meron akong kwento!
Meron akong... (ANOOO?!!! )
MERON AKONG KWENTO!!!
(AH, WALA,WALA, WALA, WALA, WALA!!!! )”

Reg rubio:Matamis man sa pandinig! Parang bagong ihi ka kinikilig! Para maniwala sa 
naririnig! Parang tinalian lang ang iyong leeg Parang tinalian lang ang iyong leeg 
Parang lang sa!

Pakinggan ninyo ang sinasabe ng labe
Isang (magaling)   na tulad ko ang nagmamay-are
nangyare upang kayong laht ay mamulat ,magulat
at yan naman ang dapat
grabeh..at yan na nga bang sinasabe...
lakasan mo pa at ihampas mo palage
sige! magi sumayaw ka ng todo yumugyog sa tunog meron akong kwento(o yeah)

 “Meron akong... (Ano? )
Meron akong kwento!
Meron akong... (Ano?!!)
Meron akong kwento!
Meron akong... (ANOOO?!!! )
MERON AKONG KWENTO!!!
(AH, WALA,WALA, WALA, WALA, WALA!!!! )”


 “Meron akong... (Ano? )
Meron akong kwento!
Meron akong... (Ano?!!)
Meron akong kwento!
Meron akong... (ANOOO?!!! )
MERON AKONG KWENTO!!!
(AH, WALA,WALA, WALA, WALA, WALA!!!! )”