Kamikazee - Wala Text Guitar Tab

Learn song with the online tabulature player
Kamikazee-Wala


Long Time Noisy

Made in Lucena City


Donated by SHC BSN'10


f_sario@yahoo.com


tabber/f***er- Francis ng BSN 4A batch 2010

for free lesson(PARA SA MGA LUCENAHIN,CORDIAN,ENVERGANS,MARIANS,QUEUZONIANS LANG ITONG 
just txt: 09283150081

or go to my house..baka kapitbahay nyo lang ako...hehehe..


...ung kulang ng guitar player sa banda,, ,,,txt lang,,wla akong
banda ..heheh..kayo ang pumnta sa amin...



Pakirate!!!
kung may reklamo magcomment naman kayo...tsk,tsk...
sayang naman effort ko,,,hehehe thanks!!!



Hi sa lahat ng BSN,MSN sa SAkre..hehehe...




note:BAWAL ITONG GAMITIN,TUGTUGIN,BASAHIN NG WALANG PAHINTULOT SA AKIN(09283150081) MGA 
NYO... HAHAHAHA


GtrI  ( e b g d a E ) Jomal-09283150081
GtrII ( e b g d a E ) Led-
Intro-
GtrI
|---------------------------------------------------------------|
|-----------9h10-10--9h10-10--9h10-10--9h10-10--9h10-9h10-------|
|-------8h9-9----9---9----9---9----9---9----9---9----9----------|
|---7h9---------------------------------------------------------|
|-7-------------------------------------------------------------|
|---------------------------------------------------------------|


|---------------------------------------------|
|-9h10-10--9h10-10--9h10-10--9h10-10----------|
|-9----9---9----9---9----9---9----9-----------|
|--------------------------------------x------|
|--------------------------------------x7-7---|
|--------------------------------------x5-5---|
                                        * *
GtrI&II
|-------------------------------------------------------------------|
|-------------------------------------------------------------------|
|-----66-77-----------------77-99------66-77---------------4-6-7----|
|-777-66-77----------7--99--77-99--777-66-77----------777--4-6-7----|
|-777-44-55-22-4-2---7--99--55-77--777-44-55-22-4-2---777--2-4-5----|
|-555-------00-2-0---5--77---------555-------00-2-0---555-----------|


Verse-
GtrI&II

|--------------------|
|--------------------|
|--------------------|
|-7------------------|
|-7-77777777777------|
|-5-55555555555------|
    ********
|------------------------------------------------------------------------|
|------------------------------------------------------------------------|
|--------------------------7-7-7-7----------------------------7-7-7-7----|
|-7-7-7-7-7-7-7-7--5-5-5-5-7-7-7-7---7-7-7-7-7-7-7-7--5-5-5-5-7-7-7-7----|
|-7-7-7-7-7-7-7-7--5-5-5-5-5-5-5-5---7-7-7-7-7-7-7-7--5-5-5-5-5-5-5-5----|
|-5-5-5-5-5-5-5-5--3-3-3-3-----------5-5-5-5-5-5-5-5--3-3-3-3------------|

GtrI
|------------------------------------------------------------------------|
|------------------------------------------------------------------------|
|--------------------------7-7-7-7----------------------------7-7-7-7----|
|-7-7-7-7-7-7-7-7--5-5-5-5-7-7-7-7---7-7-7-7-7-7-7-7--5-5-5-5-7-7-7-7----|
|-7-7-7-7-7-7-7-7--5-5-5-5-5-5-5-5---7-7-7-7-7-7-7-7--5-5-5-5-5-5-5-5----|
|-5-5-5-5-5-5-5-5--3-3-3-3-----------5-5-5-5-5-5-5-5--3-3-3-3------------|

GtrII
|------------------------------------------------------------------------|
|------------------------------------------------------------------------|
|------------------------------------------------------------------------|
|-----4-------4------4-5-7-5-4-5-4-------4------4-------4-5-7-5-4-5-4----|
|---7---7---7--7---7-------------------7---7--7---7---7------------------|
|-5-------5--------------------------5-------5---------------------------|

Pre-chorus-clap[ your hands :}
|------------------------------------|
|------------------------------------|
|------------------------------------|
|-xx--xxxx--xx-xxxx--xx--xxxxxxxx----|
|-xx--xxxx--xx-xxxx--xx--xxxxxxxx----|
|-xx--xxxx--xx-xxxx--xx--xxxxxxxx----|

Chorus-
GtrI&II
|-------------------------------------------------------------------|
|-------------------------------------------------------------------|
|---------------------------77-99------66-77-----------------77-99--|
|-7------------------7--99--77-99--777-66-77----------7--99--77-99--|
|-7------------------7--99--55-77--777-44-55-22-4-2---7--99--55-77--|
|-5------------------5--77---------555-------00-2-0---5--77---------|


|-------------------------------------------------------------------|
|-------------------------------------------------------------------|
|-----66-77-----------------77-99------66-77---------------4-6-7----|
|-777-66-77----------7--99--77-99--777-66-77----------777--4-6-7----|
|-777-44-55-22-4-2---7--99--55-77--777-44-55-22-4-2---777--2-4-5----|
|-555-------00-2-0---5--77---------555-------00-2-0---555-----------|


for free lesson just txt: 09283150081
Verse-
GtrI&II
|--------------------|
|--------------------|
|--------------------|
|-7-77777777777------|
|-7-77777777777------|
|-5-55555555555------|
    ********
GtrI&II
|------------------------------------------------------------------------|
|------------------------------------------------------------------------|
|--------------------------7-7-7-7----------------------------7-7-7-7----|
|-7-7-7-7-7-7-7-7--5-5-5-5-7-7-7-7---7-7-7-7-7-7-7-7--5-5-5-5-7-7-7-7----|
|-7-7-7-7-7-7-7-7--5-5-5-5-5-5-5-5---7-7-7-7-7-7-7-7--5-5-5-5-5-5-5-5----|
|-5-5-5-5-5-5-5-5--3-3-3-3-----------5-5-5-5-5-5-5-5--3-3-3-3------------|

(Paradise City-Guns 'n Roses -intro-)
|-3----3---3-----3----3---3----3---3---3---3---3----3---3---|
|-3-3-3-3-3--3---3-3-3-3-3-3---3--3-3--3--3-3--3-3-3-3-3-3--|
|-0--0---0----0--0--0---0---0--0-0---0-0-0---0-0--0---0---0-|
|-0--------------2-------------3-------2-------0------------|
|-2--------------3---------------------3-------2------------|
|-3--------------------------------------------3------------|

GtrI
|------------------------------------------------------------------------|
|------------------------------------------------------------------------|
|--------------------------7-7-7-7----------------------------7-7-7-7----|
|-7-7-7-7-7-7-7-7--5-5-5-5-7-7-7-7---7-7-7-7-7-7-7-7--5-5-5-5-7-7-7-7----|
|-7-7-7-7-7-7-7-7--5-5-5-5-5-5-5-5---7-7-7-7-7-7-7-7--5-5-5-5-5-5-5-5----|
|-5-5-5-5-5-5-5-5--3-3-3-3-----------5-5-5-5-5-5-5-5--3-3-3-3------------|

GtrII
|------------------------------------------------------------------------|
|------------------------------------------------------------------------|
|------------------------------------------------------------------------|
|-----4-------4------4-5-7-5-4-5-4-------4------4-------4-5-7-5-4-5-4----|
|---7---7---7--7---7-------------------7---7--7---7---7------------------|
|-5-------5--------------------------5-------5---------------------------|
Do Pre-chorus-and Chorus

Pakirate!!!
kung may reklamo magcomment naman kayo...tsk,tsk...
sayang naman effort ko,,,hehehe thanks!!!
for free lesson just txt: 09283150081
Interlude-
GtrI
|------------------------------------------------------------------------|
|------------------------------------------------------------------------|
|------------------------------------------------------------------------|
|-777-6-5------555-4-3---------------777-6-5------555-4-3----------------|
|-777-6-5------555-4-3--/7^-/7^-7^7^-777-6-5------555-4-3----------------|
|-555-4-3------333-2-1---------------555-4-3------333-2-1----------------|
GtrII
|----------------------------------------------------------10--10--10----|
|----------------------------------------------------------13^-13^-13^---|
|------------------------------------------------------------------------|
|-777-6-5------555-4-3---------------777-6-5------555-4-3----------------|
|-777-6-5------555-4-3--/7^-/7^-7^7^-777-6-5------555-4-3----------------|
|-555-4-3------333-2-1---------------555-4-3------333-2-1----------------|


Solo-
for free lesson just txt: 09283150081
GtrI
|-------------------------------------------------10--10--10---12--12--12--|
|--9h10-10--9h10-10--9h10-10--9h10-10--9h10-9h10--13^-13^-13^--13^-13^-13^-|
|--9----9---9----9---9----9---9----9---9----9------------------------------|
|--------------------------------------------------------------------------|
|--------------------------------------------------------------------------|
|--------------------------------------------------------------------------|

|-121512--121512--121512--121512--121512--121512--121512--12---15^-15^-15^r-|
|-------15------15------15------15------15------15------15------------------|
|---------------------------------------------------------------------------|
|---------------------------------------------------------------------------|
|---------------------------------------------------------------------------|
|---------------------------------------------------------------------------|

GtrII

|--------------------------------------------------------------------------|
|--------------------------------------------------------------------------|
|----------------------------7-7-7-7------------------------------7-7-7-7--|
|-7-7-7-7-7-7-7-7---5-5-5-5--7-7-7-7---7-7-7-7-7-7-7-7---5-5-5-5--7-7-7-7--|
|-7-7-7-7-7-7-7-7---5-5-5-5--5-5-5-5---7-7-7-7-7-7-7-7---5-5-5-5--5-5-5-5--|
|-5-5-5-5-5-5-5-5---3-3-3-3------------5-5-5-5-5-5-5-5---3-3-3-3-----------|

then
GtrI
|---------------------------------------------------------------------------------|
|-------------------------14h15-15-14h15-15-14h15-15-14h15-15-14h15--14h15--------|
|-------------------------14----14-14----14-14----14-14----14-14-----14-----------|
|-777-5-7-5--77-2-----------------------------------------------------------------|
|-777-5-7-5--55-0-5h7-5p3---------------------------------------------------------|
|-555-3-5-3-----------------------------------------------------------------------|


|--------------------------------------------------------0~-----------------|
|-14^(15)-14~--14h15-14-12--15-14-12---------------------0~-----------------|
|------------------------------------14-12-------------/-2~-----------------|
|------------------------------------------14-12-10~-1O/-2~-----------------|
|------------------------------------------------------/-0~-----------------|
|---------------------------------------------------------------------------|
for free lesson just txt: 09283150081
GtrII
|---------------------------------------------------------------------------------|
|---------------------------------------------------------------------------------|
|-----------------7/9-7-5-----------7-7-7-7------------------------------7-7-7-7--|
|-777-5-7-5--77-2-----7-5--5-5-5-5--7-7-7-7---7-7-7-7-7-7-7-7---5-5-5-5--7-7-7-7--|
|-777-5-7-5--55-0-5/7-5-3--5-5-5-5--5-5-5-5---7-7-7-7-7-7-7-7---5-5-5-5--5-5-5-5--|
|-555-3-5-3----------------3-3-3-3------------5-5-5-5-5-5-5-5---3-3-3-3-----------|


GtrI
|-0~------------------0~--------0~------0~------------------0~----0~-------|
|-0~------------------0~---------0~-----0~------------------0~------0~-----|
|-2~------------------2~----------2~----2~------------------2~--------2~---|
|-2~------------------2~----------------2~------------------2~--------2~---|
|-0~------------------0~----------------0~------------------0~--------0~---|
|--------------------------------------------------------------------------|

GtrII strum A(577x00)

at sa kin an huling hlakhak... PUTANG INA NYO!!
then GtrI & II
|------------------------------------|
|------------------------------------|
|------------------------------------|
|-xx--xxxx--xx-xxxx--xx--xxxxxxxx----|2x
|-xx--xxxx--xx-xxxx--xx--xxxxxxxx----|
|-xx--xxxx--xx-xxxx--xx--xxxxxxxx----|

Chorus-GtrI&II
|-------------------------------------------------------------------|
|-------------------------------------------------------------------|
|------------------------------------------------------------77-99--|
|-7--------------------------------------------------77--99--77-99--|
|-7--------------------------------------------------77--99--55-77--|
|-5--------------------------------------------------55--77---------|

|-------------------------------------------------------------------|
|-------------------------------------------------------------------|
|-----66-77-----------------77-99------66-77-----------------77--99-|
|-777-66-77----------7--99--77-99--777-66-77----------77--99-77--99-|
|-777-44-55-22-4--2--7--99--55-77--777-44-55-22-4--2--77--99-55--77-|
|-555-------00-2--0--5--77---------555-------00-2--0--55--77--------|


|---------------------------------0~----0----------|
|---------------------------------0~-----0---------|
|--------77--99----------77--99---2~------2~-------|
|-77--99-77--99---77--99-77--99---2~------2~-------|
|-77--99-55--77---77--99-55--77---0~------0~-------|
|-55--77----------55--77---------------------------|


for free lesson just txt: 09283150081
GtrI
|-0~------------------0~----------------------------0~----0~--------0-~|
|--0~-----------------0~----------------------------0~------0~------0~-|
|----2~---------------2~---------2h44444444---------2~--------2~----2~-|
|---------------------2~----------------------------2~--------2~----2~-|
|---------------------0~----------------------------0~--------0~----0~-|
|----------------------------------------------------------------------|

GtrIIGtrII strum A(577x00)

Pakirate!!!
kung may reklamo magcomment naman kayo...tsk,tsk...
sayang naman effort ko,,,hehehe thanks!!!


Lyrics!!!


Napanood sa telebisyon, inuuto ang nation
Na-dig daw expectation, sa kanyang imagination
Walang nangyari, wala namang nagbago
Parehong kwento, sino ba ang niloloko mo

Wala naman kaming napala
(Wala, wala, wala)
Meron pa bang naniniwala
(Wala, wala, wala)
Wala ka naman kasing nagawa
(Wala, wala, wala)
Wala na sa’yong naniniwala

Sabi mo merong solusyon, poverty at mastarbeysyon

Nabawasan daw konsumisyon, dis kol por a selebreysyon
Pero walang nangyari, wala namang nagbago
Parehong kwento, sino ba ang niloloko mo

Wala naman kaming napala
(Wala, wala, wala)
Meron pa bang naniniwala
(Wala, wala, wala)
Wala ka naman kasing nagawa
(Wala, wala, wala)
Wala na sa’yong naniniwala

“Mga mahal kong kababayan
Sa panahon ng aking panunungkulan
Katakut-takot na kurakot ang inyong maasahan
Paliliguan ko kayo ng sandamamak na kasinungalingan
At sa lahat ng saki’y bumoto, ano kayo, hilo
Ako muna bago kayo, at sa kabila ng lahat
Makikita ang ngiti sa aking mukha
Na parang walang naganap
At sa’kin ang huling halakhak”

Putang ina nyo

Wala naman kaming napala
(Wala, wala, wala)
Lalo lang lumalala
Wala ka naman kasing nagawa
(Wala, wala, wala)
Wala na sa’yong naniniwala
(Wala, wala, wala)
(Wala, wala, wala)

Bakit di’ ka pa mawala
Bakit di’ ka pa mawala
Bakit di’ ka pa mawala

Wala namang akong napala...wala..wala...wala,,,
bakit di pa kayo mawala...


puro kayo tingin,basa lang ng basa ng tabs...


sa mga nag txt ng pasasalamat or nagrate
THAnk you ...hahaha