Kane - Something To Say Text Guitar Tab

Learn song with the online tabulature player
something to say - kane

I only tabbed the lead guitar parts


standard tuning

0:04-0:18
|------------------------------|
|---8------8------8------8-----|
|--10b12--10b12--10b12--10b12--|
|------------------------------|
|------------------------------|
|------------------------------|x8


0:43-0:53
|------------------|
|------8------8\6--|
|------------------|
|--3/8----3/8------|
|------------------|
|------------------|

1:16-1:19
|------------------------------|
|---8------8------8------8-----|
|--10b12--10b12--10b12--10b12--|
|------------------------------|
|------------------------------|
|------------------------------|x4

1:19-1:33
|----------------------|
|----8-----------------|
|---10b12-rb-rb-10b12--|
|----------------------|
|----------------------|
|----------------------|

1:45-1:57 (played softly)
|----------------------------------|
|------8------8------8\6------8\6--|
|----------------------------------|
|--3/8----3/8----3/8------3/8------|
|----------------------------------|
|----------------------------------|

1:58-2:12
|-------------------------------------|
|-------8------8--/11---6--------8\6--|
|-------------------------------------|
|--3/8----3/8--------------3/8--------|
|-------------------------------------|
|-------------------------------------|


solo
2:42-2:56
|-----------------------------------------------------|
|------8v---/11--3v-------8\6-----8\6-----------------|
|-----------------------------------------------------|
|--3/8----------------3/8-----3/8------8-8-8-7-7-7/8--|
|-----------------------------------------------------|
|-----------------------------------------------------|


paul westerink
paul11ajax@hotmail.com