Kansas - Hold On Text Guitar Tab

Learn song with the online tabulature player
This is the violin intro transcribed into guitar.

e|----------------------------------------------------------------------|
B|----------------------------------------------------------------------|
G|----------------------------------------------------------------------|
D|---------------------------0-2-3-2---0-----0----------------2-0-------|
A|0-2-3-2-0-3-2-0----0-2-3-3---------3---3-2---3-2-0--------3-----3-2---|
E|----------------3---------------------------------------------------3-|


e|---------------------------------------------------------------------------|
B|---------------------------------------------------------------------------|
G|---------------------------------------------------------------------------|
D|---------------------------0-2-3-2---0-----0----------------2-0------------|
A|0-2-3-2-0-3-2-0----0-2-3-3---------3---3-2---3-2-0--------3-----3-2---0----|
E|----------------3---------------------------------------------------3------|