Kari Jobe - Revelation Song Text Guitar Tab

Learn song with the online tabulature player
Hey this song is really great and inspirational.  It's pretty easy.  So nobody had 
out so i thought i'd put one out.  I bridge is iffy but trust me i looked everywhere and 
all i found.


Intro/Verse/Chours

Now you could also play the D and A as open strings, but i think it sounds better this way
G:------------------------------------------------------------------|
D:------------------------------------------------------------------|
A:--5-555-5--------2-3-333---------7-5-555--------------------------|
E:----------5-555------------3333-----------------------------------|
Really.........it is that easy


Brige
Again you could play the D as an open string . you could also move the F (1) to the D 
(3)
G:----------------------------------------------------------|
D:----------------------------------------------------------|
A:----5-555-5----------------3-333-3-------------------5----|
E:--------------1-111--1-----------------3-333-3------------|
and repeat


Enjoy and if you have any questions at all feel free to send me an e-mail and i'll try 
get back to you asap.
50cal58@gmail.com