Kasey Chambers - True Colours Text Guitar Tab

Learn song with the online tabulature player
-------------------------------------------------------------------------------
                             TRUE COLOURS - Kasey Chambers
-------------------------------------------------------------------------------

Tuning: Standard

e|---3-----------3---3-----------3---3--------------------------------|
B|-------0---1-----------0---1------------0---1---------------0---1---| [REPEAT]
G|--------------------------------------------------2-----------------|
D|--------------------------------------------------------------------|
A|---0-----------0---2-----------0---2--------------------------------|
E|--------------------------------------------------------------------|