Kashmir - The Aftermath Text Guitar Tab

Learn song with the online tabulature player
_________________
   / Kashmir        /  This sweet and seemingly simple song is actually very
  / The Aftermath  /  complex - as Kashmir's music so often is. The tricky
 / Zitilites      /  aspects are the strumming on the off-beat, the unusual
/________________/  time signatures and especially the confusing song structure.
                   Therefore this tab needs to be packed with information,
                  which does make it a bit hard to see through at first.


Capo on 3rd fret


 Intro:
  Bb
  4/4
  +   +   +   +     +   +   +   +
|---3---3---3---3-|---3---3---3---3-|
|---0---0---0---0-|---0---0---0---0-|
|---0---0---0---0-|---0---0---0---0-|
|---0---0---0---0-|---0---0---0---0-|
|-2---------------|-----------------|
|-3---------------|-----------------|



 1st Verse:
    Bb      Eb    Bb
    3/4           4/4               2/4
    +   +   +     +   +   +   +     +   +
||----3---3---3-|---3---3---3---3-|---3---3-|
||o---0---0---1-|---0---0---0---0-|---0---0-|
||----0---0---0-|---0---0---0---0-|---0---0-|
||----0---0---x-|---0---0---0---0-|---0---0-|
||o-2-------3---|-2---------------|---------|
||--3-----------|-3---------------|---------|


  Bb      Eb    Bb
  3/4           4/4               2/4
  +   +   +     +   +   +   +     +   +
|---3---3---3-|---3---3---3---3-|---3---3-|
|---0---0---1-|---0---0---0---0-|---0---0-|
|---0---0---0-|---0---0---0---0-|---0---0-|
|---0---0---x-|---0---0---0---0-|---0---0-|
|-2-------3---|-2---------------|---------|
|-3-----------|-3---------------|---------|

                                 1.
  Gm      F     Eb
  3/4           4/4               2/4
  +   +   +     +   +   +   +     +   +
|---3---3---2-|---3---3---3---3-|---3---3-|
|---0---0---3-|---1---1---1---1-|---1---1-|
|---0---0---2-|---0---0---0---0-|---0---0-|
|---2---2-0---|---x-------------|---------|
|-------------|-3---------------|---------|
|-0-----------|-----------------|---------|


  Eb  Bb/D Gm   D
  3/4           4/4               2/4
  +   +   +     +   +   +   +     +   +
|---3---3---0-|---2---2---2---2-|---2---2--||
|---1---3---1-|---3---3---3---3-|---3---3-o||
|---0---0---2-|---2---2---2---2-|---2---2--||
|---x---0---2-|-0---------------|----------||
|-3---2---0---|-----------------|---------o||
|-------------|-----------------|----------||

 2.
  Dm        Cm        Gm        D                 D7
  2/4                           4/4
  +   +     +   +     +   +     +   +   +   +     +   +   +   +
|---2---2-|---0---0-|---0---0-|---2---2---2---2-|---2---2---2---2-||
|---3---3-|---1---1-|---0---0-|---3---3---3---3-|---1---1---1---1-||
|---4---4-|---2---2-|---0---0-|---2---2---2---2-|---2---2---2---2-||
|---4---4-|---2---2-|---2---2-|-0---------------|-0---------------||
|-2-------|-0-------|---------|-----------------|-----------------||
|---------|---------|-0-------|-----------------|-----------------||





 Chorus:
    Bb         Ebsus2 Bb                Dm
    +   +   +   +     +   +   +   +     +   +   +   +     +   +   +   +
||----3---3---3---3-|---3---3---3---3-|-----------------|-----------------|
||o---3---3---3---3-|---3---3---3---3-|---3---3---3---3-|---3---3---3---3-|
||----0---0---0---0-|---0---0---0---0-|---4---4---4---4-|---4---4---4---4-|
||------------------|-----------------|---4---4---4---4-|---4---4---4---4-|
||o-------------3---|-----------------|-2---------------|-2---------------|
||--3---------------|-3---------------|-----------------|-----------------|

 1.
  Eb      Gm                          Fsus4             F       Cm
  +   +   +   +     +   +   +   +     +   +   +   +     +   +   +   +
|---3---3---3---3-|---3---3---3---3-|---3---3---3---3-|---2---2---0---0--||
|---1---1---0---0-|---0---0---0---0-|---3---3---3---3-|---3---3---1---1-o||
|---0---0---0---0-|---0---0---0---0-|---2---2---2---2-|---2---2---2---2--||
|---2---2---2---2-|---2---2---2---2-|-0---------------|-0---------2---2--||
|-3---------------|-----------------|-----------------|---------0-------o||
|---------0-------|-----------------|-----------------|------------------||

 2.
  Eb      Gm
  +   +   +   +     +   +   +   +
|---3---3---3---3-|---3---3---3---0-||
|---1---1---0---0-|---0---0---0---1-||
|---0---0---0---0-|---0---0---0---2-||
|---2---2---2---2-|---2---2---2---2-||
|-3---------------|-----------------||
|---------0-------|-----------------||





 Post-Chorus:
    Cm        Ebmaj7            Gm        Fsus4
    2/4       4/4               2/4       4/4
    +   +     +   +   +   +     +   +     +   +   +   +
||----0---0-|---0---0---0---0-|---0---0-|---3---3---3---3-|
||o---1---0-|---0---0---0---0-|---0---0-|---3---3---3---3-|
||----2---0-|---0---0---0---0-|---0---0-|---2---2---2---2-|
||----2---2-|---2---2---2---2-|---2---2-|-0---------------|
||o-0-------|-3---------------|---------|-----------------|
||----------|-----------------|-0-------|-----------------|

 1.                  2.
  Cm      Ebmaj7      Cm        Ebmaj7
  4/4                 2/4       4/4
  +   +   +   +       +   +     +   +   +   +
|---0---0---0---0--||---0---0-|---0---0---0---0-||
|---1---0---0---1-o||---1---0-|---0---0---0---0-||
|---2---0---0---2--||---2---0-|---0---0---0---0-||
|---2---2---2---2--||---2---2-|---2---2---2---2-||
|-0-------3-------o||-0-------|-3---------------||
|------------------||---------|-----------------||





 2nd Verse:
The time signatures are similar to the 1st verse.
However, in the first half of the verse (down to the repetition),
all the chords are just strummed on beat 1. In the second half
(down to the chorus), they're strummed on the off-beats again.


 Chorus:
Similar to previous

 Post-Chorus:
Similar to previous



 Outro:
  Bb      Eb    Bb
  3/4
  +   +   +     +
|---3---3---3-|-3---------------:
|---0---0---1-|-0---------------:
|---0---0---0-|-0---------------:
|---0---0-2---|-0---------------:
|-2---2---3---|-2---------------:
|-3---3-------|-3---------------:



Jon Sebastian Frederiksen - 6th /December /09
Just mail me at Maitinin@gmail.com with questions, comments and corrections!