Kassidy - I Dont Know Text Guitar Tab

Learn song with the online tabulature player
--------------------------------------|
--------------------------------7-----|
--------------------------------------|
------------------------------7-------|
------55555555555555------------------|x7
000000--------------------------------|

--------------------------------------|
--------------------------------7-----|
--------------------------------------|
------------------------------7-------|
------55555555555666------------------|x7
000000--------------------------------|

--------------------------------------|
--------------------------------7-----|
--------------------------------------|
------------------------------7-------|
------55555555555545------------------|x7
000000--------------------------------|