Kat Deluna - Whine Up Text Guitar Tab

Learn song with the online tabulature player
WHINE UP - Kat Deluna
-------------------------------------------------------------------------------
Tabbed by:
Email:ironmaidens_666@hotmail.com
e|------------------|
b|------------------|
g|------------------| 3 times
D|----------6-6-----|
A|--4---------------|
E|------------------|


e|-------------------|
b|-------------------|
g|-------------------|
D|------6-6----7-7---|
A|--4-------4--------|
E|-------------------|