Kathryn Williams - Hallelujah Text Guitar Tab

Learn song with the online tabulature player
Hallelujah (Leonard Cohen cover)
Kathryn Williams

Here is one of the most beautiful cover of Hallelujah (Leonard cohen). Guess it sounds 
good but that's my first tab so please be gentle.
The song is played on a classic guitar (nylon) with a classic tune(EADGBe)
Please send your comments to mf4@wanadoo.fr

    INTRO     x3
e| ------------ |
B| ---4-----4-- |
G|.--3--3--3--3.|
D|.-5-----5----.|
A| 3-----3----- |
E| ------------ |

Verses :
e|--------------------------------------------------------------------------------3-----------------------|
B|---4------4------4------4------4------3------4------3------4------3------4-----4-4----4------3------3---|
G|--3---3--3---3--3---3--3---3--5---5--4---4--3---3--4---4--3---3--4---4--5---5-3---3--5---5--4---4--4-4--|
D|-5------5------5------5------6------3------5------3------5------3------6-----5------6------3------5---5-|
A|3------3------3------3------6------5------3------5------3------5------6------------6------5------3-----3|
E|--------------------------------------------------------------------------------------------------------|

Chorus :
e|-------------------------------------------------------|
B|---4-----4-----4------4-----4-----4-----3-----4--------|
G|--3-3---3-3---5-5---(5)5---3-3---3-3---4-4---5-5-------|
D|-5---5-5---5-6---6-(6)--6-5---5-5---5-3---3-6---6------|
A|3-----3-----6-----6------3-----3-----5-----6-----------|
E|-------------------------------------------------------|