Katy Brien - On A Mission Text Guitar Tab

Learn song with the online tabulature player
This is all it is throughout the whole song

E|----------------|-------------------------|
A|-3-3-3-3-3-3-3-3|-10-10-10-10-10-10-10-10-|
D|-5-5-5-5-5-5-5-5|-12-12-12-12-12-12-12-12-|
G|-5-5-5-5-5-5-5-5|-12-12-12-12-12-12-12-12-|
B|----------------|-------------------------|
E|----------------|-------------------------|

E|-4-4-4-4-4-4-4-4|-11-11-11-11-11-11-11-11-|-1-1-1-1-1-1-1-1-|
A|-6-6-6-6-6-6-6-6|-13-13-13-13-13-13-13-13-|-3-3-3-3-3-3-3-3-|
D|-6-6-6-6-6-6-6-6|-13-13-13-13-13-13-13-13-|-3-3-3-3-3-3-3-3-|
G|----------------|-------------------------|-----------------|
B|----------------|-------------------------|-----------------|
E|----------------|-------------------------|-----------------|

E|-3-3-3-3-4-4-4-4|-4-4-4-4-4-4-4-|
A|-5-5-5-5-6-6-6-6|-6-6-6-6-6-6-6-|
D|-5-5-5-5-6-6-6-6|-6-6-6-6-6-6-6-|
G|----------------|---------------|
B|----------------|---------------|
E|----------------|---------------|