Katy Perry - One Of The Boys Text Guitar Tab

Learn song with the online tabulature player
this is my first tab, but im pretty sure it's right for the most part.
please rate :]

-use a capo on the first fret

-watch for strum pattern-->  http://youtube.com/watch?v=CphTP8YKvys

Let's get started :]



intro/verse/outro  (palm mute)
i saw a spider....
e|--x----x----x------|   
B|--x----x----x------|  
G|-10----9----x------|  
D|--8----7---10------|  
A|--0----8----8------|  
E|--x----x----x------|  
...get in my way...

CHORUS

the way you look at me...
e|--5----5----6----3-----|
B|--6----5----6----3-----|
G|--7----6----7----4-----|
D|--7----7----8----5-----|  x2
A|--5----7----8----5-----|
E|--5----5----6----3-----|
...nothing but blisters...
so i don't wanna be one of the boys.....
e|--x----5----6----9----6-|   ---x-|
B|--x----5----6----9----6-|   ---x-| second time around, end on E chord.
G|--1----6----7---10----7-|   ---1-|
D|--2----7----8---11----8-|   ---2-| x2
A|--2----7----8---11----8-|   ---2-|
E|--0----5----6----9----6-|   ---0-|
...not one of the boys....


VERSE

CHORUS


BRIDGE

i wanna be a flower....
e|--6----5----5----3-|
B|--6----5----6----3-|
G|--7----6----7----4-|  end on E chord
D|--8----7----7----5-|  x3
A|--8----7----5----5-|
E|--6----5----5----3-|

CHORUS

OUTRO

e|--x----x----x------|
B|--x----x----x------|
G|-10----9----x------|  
D|--8----7---10------|
A|--0----8----8------|
E|--x----x----x------|




so thats it :]
if you have any questions, send me a message via youtube at wheresmychapstick10

Good luck!
-Stephanie