Katy Perry - Thinking Of You Text Guitar Tab

Learn song with the online tabulature player
KATY PERRY – THINKING OF YOU

Here's a video of it played live:
http://www.youtube.com/watch?v=OMOHHEaHH7Y

*play the open strings!! i didnt put in the zeros...
VERSE:

E  ------------------------------------------------------------------------|
B  ------------------------------------------------------------------------|
G  ----9--------------------9-----------------9-------------------9--------|
D  ----9--------------------9-----------------9-------------------9--------|
A  ----7--------------------------------------x-------------------0--------|
E  -------------------------7-----------------9----------------------------|

PRE CHORUS:

E  -------------------------------------------0--------2-----0----|
B  -------------------------------------------0--------0-----0----|
G  -------4-----------------6-----------------2--------2-----2----|
D  -------4-----------------6-----------------2--------2-----2----|
A  -------2-----------------4-------------------------------------|
E  ---------------------------------------------------------------|
she doesnt always play that 2nd fret on the first string all the time. sometimes she 
plays that A  chord only
E --------------------------------------------------------------------|
B  -------------------------------------------------------------1-----|
G  -------4-----------------6---------------14-----13-----------2-----|
D  -------4-----------------6---------------14-----13-----------2-----|
A  -------2-----------------4---------------12-----11-----------------|
E  -------------------------------------------------------------------|

CHORUS:
E  ----------------------------------------------------------------------|
B  ----------------------------------------------------------------------|
G  -------1-----------------2--------------2------------------4----------|
D  -------2-----------------2--------------2------------------4----------|
A  -------2-----------------0--------------0------------------2----------|
E  -------------------------2--------------0-----------------------------|

E  -----------------------------------------------------------------------|
B  -----------------------------------------------------------1-----------|
G  -------1-----------------2--------------2------------------2-----------|
D  -------2-----------------2--------------2------------------2-----------|
A  -------2-----------------0--------------0------------------------------|
E  -------------------------2--------------0------------------------------|
POST CHORUS IS LIKE VERSE
VERSE
CHORUS

BRIDGE:

E  -----------------------0---2---0---2--------------------0---2---0---4-|
B  ---5-------------------2---2---2---2------5-------------2---2---2---2-|
G  ---6----------3--------2---2---2---2------6--------3----2---2---2---2-|
D  ---6----------4--------2---2---2---2------6--------4----2---2---2---2-|
A  ---4----------4---------------------------4--------4------------------|
E  --------------2------------------------------------2------------------|
in other performances, sometimes she doesn't move her pinky and she only plays the A Chord.

CHORUS 2X
PLAY SAME NOTES FROM VERSE FOR OUTRO

Guitar 2
e|---------------7----------------------|
B|-----------7--------------------------|
G|----8h9-------------------------------|
D|----9---------------------------------|
A|--------------------------------------|
E|--------------------------------------|
-This is what the second guitar plays(In the studio recorded version)

tabbed by karla dulay :)