Keith Urban - Somebody Like You Text Guitar Tab

Learn song with the online tabulature player
Keith Urban
Somebody Like You
Tab: EADGBE
Tabbed By: Glo Jr.

I had absolutely no idea what the names of the chords where, so I called the Chord 
Chord 2(C.2) Chord 3(C.3) and Chord 4(C.4)

I changed the ending to the song so it just repeats and fades. This is how the actual 
goes, so tell me what you think!

Email me any corrections or mistakes (If there are any) at pbj_93@comcast.net (Use the 
Keith Urban Tabs) Thank You!

P.S. listen to the song for the strumming pattern. Its really easy. :)


Chords
 C.1  C.2  C.3  C.4
--0----0----0----0-|
--0----0----0----0-|
--9----6----8----8-|
--9----7----9----9-|
--7----7----9----9-|
--x----5----7----8-|

Intro: Play Four Times

Play while strumming the three highest strings (Do this everytime you play this riff)
--------------------------------|
--------------------------------|
-8h9-9-11-11-9-11-11h13-14-14-9-|
--------------------------------|
--------------------------------|
--------------------------------|

Verse 1
C.1
There's a new wind blowin' like I've never known.

I'm breathin' deeper than I've ever done.
       C.2
And it sure feels good, to finally feel the way I do.

--------------------------------|
--------------------------------|
-8h9-9-11-11-9-11-11h13-14-14-9-|
--------------------------------|
--------------------------------|
--------------------------------|
        C.3
I wanna love somebody,
C.2
Love somebody like you.

Verse 2
C.1
An' I'm lettin' go of all my lonely yesterdays.

I've forgiven myself for the mistakes I've made.
            C.2
Now there's just one thing, the only thing I wanna do,

--------------------------------|
--------------------------------|
-8h9-9-11-11-9-11-11h13-14-14-9-|
--------------------------------|
--------------------------------|
--------------------------------|
        C.3
I wanna love somebody,
C.2
Love somebody like you.

--------------------------------|
--------------------------------|
-8h9-9-11-11-9-11-11h13-14-14-9-|
--------------------------------|
--------------------------------|
--------------------------------|

Chorus:
                       C.2
Yeah, I wanna feel the sunshine,
                       C.1
Shinin' down on me and you.
                       C.2
When you put your arms around me,
                                        C.4           C.2
You let me know there's nothing in this world I can't do.

Verse 3
C.1
I used to run in circles goin' no-where fast.

I'd take, uh, one step forward end up two steps back.
         C.2
Couldn't walk a straight line even if I wanted to,

--------------------------------|
--------------------------------|
-8h9-9-11-11-9-11-11h13-14-14-9-|
--------------------------------|
--------------------------------|
--------------------------------|
        C.3
I wanna love somebody,
C.2
Love somebody like you.

--------------------------------|
--------------------------------|
-8h9-9-11-11-9-11-11h13-14-14-9-|
--------------------------------|
--------------------------------|
--------------------------------|

Whoa here we go now!

Solo:
----------------------------------------------------|
-12-12----9----9h11-9---------12-12---9----9h11-9---|
-11-11bh----11----------------11-11bh---11----------|
----------------------------------------------------|
----------------------------------------------------|
-----------------------2/15/0-----------------------|

-0--0--0--0---0-----0-----0-----0----0---0---0------|
-17-17-17-16b-16/14-14/12-12/10-10/9-9/7-7/5-5--3/5-|
------------------------------------------------2/4-|
----------------------------------------------------|
----------------------------------------------------|
----------------------------------------------------|

-----------------------------------------------------------|
-----------------------------------------------------------|
-----------------------------------------------------------|
-4-4bh-2---2h4-2----------------------------------2-2-2/12-|
---------4--------------4b-4b-4b-2---2---2-2-2/12----------|
-----------------2/15/0------------4-----------------------|

-----------------------12-12--10/12-------------------|
------------------5/12--------------------------------|
--2-2-2/12----9---------------------------------------|
--------------9br-------------------------------------|
------------------------------------------------------|
------------------------------------------------------|

Chorus:
                       C.2
Yeah, I wanna feel the sunshine,
                       C.1
Shinin' down on me and you.
                       C.2
When you put your arms around me,
                                        C.4           C.2
You let me know there's nothing in this world I can't do.

Verse 4
C.1
Sometimes it's hard for me to understand,

But you're teachin' me to be a better man.
        C.2
I don't want to take this life for granted like I used to do,

--------------------------------|
--------------------------------|
-8h9-9-11-11-9-11-11h13-14-14-9-|
--------------------------------|
--------------------------------|
--------------------------------|
        C.3
I wanna love somebody,
C.2
Love somebody like you.

             C.3
I'm ready to love somebody,
C.2
Love somebody like you. Oooh.

            C.3
An' I wanna love somebody,
C.3
Love somebody like you, yeah.

--------------------------------|
--------------------------------|
-8h9-9-11-11-9-11-11h13-14-14-9-|
--------------------------------|
--------------------------------|
--------------------------------|

Repeat and Fade…