Keith Urban - Sweet Thing Text Guitar Tab

Learn song with the online tabulature player
"Sweet Thing" - Keith Urban
Tabbed by: Taylor Casey

Keith plays this song a whole step down.  The intro is done using a compressor and a
pedal.


D--8--
A--6--
F-----
C-----  opening chord, play once
G-----
D-----

Intro

D--------------8-8------------------------8-8-----|
A-------------------------------------------------|
F-------/10--------------9h10-9h10----------------|
C-------------------------------------------------|   x 6
G-------------------------------------------------|
D-------------------------------------------------|
end intro with this

D-------10p8--8----------10p8--8---------|
A----------------------------------------|
F----------------------------------------|
C----------------------------------------|
G----------------------------------------|
D----------------------------------------|

Then Keith doesn't play anything for the first verse but starts to play for the chorus
after "I thought my oh my.."

Chorus

   F  Bb C
D--1--1--3-                                  D-0-|
A--1--3--5-                                  A-1-|
F--2--3--5-  note that C can also be played  F-0-| but doesnt sound as good
C--3--3--5-                                  C-2-| on electric guitar with the
G--3--1--3-                                  G-3-| effects
D--1-------                                  D---|

F
Sweet thing,

The moon is high

And the night is young
          Bb
Come on and meet me,

In the backyard under the cotton wood tree
        C
It's a good thing,
     Bb
Am I wishin',
           F
Oh come on sweet thing,

Won't you climb on out of your window
                  Bb
While the world's sleeping

You know I need you and there's
                C
No way I'll be leavin
                         Bb
'Till we're kissin on the porch swing
             F
Oh my little sweet thing


Play intro again, only 3 times and then the last part of the intro

Again,no guitar during the verse by Keith, just the backup guitars making some noise
the intro and chords from chorus.  May be a synthesizer actually. With the banjo just
here and there.

Play chorus again.


Solo

D-------------------           D--/10-10-8-8-/10-8-10-|
A--/13-13--10h11-13-           A----------------------|
F------------------- x3 then   F----------------------|
C-------------------           C----------------------|
G-------------------           G----------------------|
D-------------------           D----------------------|


D----------------------/20-20-17h18-20--20b21-20-20b21-19-19b20-|
A--/13-13--10h11-13---------------------------------------------|
F---------------------------------------------------------------|
C---------------------------------------------------------------|
G---------------------------------------------------------------|
D---------------------------------------------------------------|

D-17-15-------|
A-------17-15-|
F-------------|
C-------------| sorry can't figure out the rest of the solo, but I'll get on
G-------------| that.  just wanted to get this up first. end the solo with an
D-------------| F chord.


After solo, no guitar while Keith sings.

End with Intro again, but for last note play the opening chord.


Please if you have any other ideas, make changes and just reference my tab.  I also
this song could be done tuned half a step below instead of a full step, but I went with this
because I think it sounds better - could be because I'm playing an acoustic guitar.  The 
would be E, A, and then Bm in that order.  You can figure out the notes, just
1 from them all.