Keith Urban - Tonight I Wanna Cry Text Guitar Tab

Learn song with the online tabulature player
Keith Urban
Tongiht I Wanna Cry
Tabbed by Jamie R. - hime16_2000@yahoo.com
Credited to both bballchic25 and palamin@countrytabs.com

Bm = x24432
D# = xx5343
Em7 = 020030
Am = x02210
G/B = x20033
Cadd9 = x32030
Cmaj7 = x32000

Tonight I Wanna Cry


Intro - G          G/B            Cadd9
E---3-----3/5-5/7--5---3h5-5/7------------------------------------------|
B-------3------------0---------3--5-----5--3-----3--1-----1--1--0h1-0---|
G-----0-----------------------------0--------0--------0---------------0-|
D-----------------------------------------------------------------------|
A------------------2--------------3---3----3---3----3---3----3--3-------|
E---3-------------------------------------------------------------------|
    G              G/B            Cadd9
E---3-----3/5-5/7--5---3h5-5/7------------3--10---|
B-------3------------0---------3--5--3h5--------8-|
G-----0-------------------------------------------|
D-------------------------------------------------|
A------------------2--------------3---------------|
E---3---------------------------------------------|

(verse 1)
G                            G/B         Cadd9
Alone in this house again tonight,
E----------------------------------------------------------------|
B---------3--------------3---------------3-------1-------0h1-0---|
G---0-------0-----0--------0---0---0-------0---0---0---0-------0-|
D-----0-------0-----0----------------2-------2-------0-----------|
A---------------2-----2------2---3-----3-3-------3-------3-------|
E---3---3--------------------------------------------------------|
    G                        G/B         Cadd9
I got the t.v. on, the sound turned down, and a bottle of wine,
E----------------------------------------------------------------|
B---------3--------------3---------------3-------1-------0h1-0---|
G---0-------0-----0--------0---0---0-------0---0---0---0-------0-|
D-----0-------0-----0----------------2-------2-------0-----------|
A---------------2-----2------2---3-----3-3-------3-------3-------|
E---3---3--------------------------------------------------------|
    Em7            Bm
There's pictures of you and I on the walls around me,
E----------0-----------------------|
B------------0-------------3-------|
G---0----------0----4--------4---4-|
D-----2---------------4--------4---|
A-----------------2-----2----------|
E---0---0--------------------------|
     Em7          Bm
The way that it was and could've been surrounds me,
E----------0---------------2-------|
B------------0---------------3---3-|
G---0----------0----4----------4---|
D-----2---------------4------------|
A-----------------2-----2----------|
E---0---0--------------------------|
      Am                            Cmaj7        D
I'll never get over you, walkin     awa - y
E------------------------------------------------2-|
B---1-----1-----0h1p0---0-----0-----0-----0--------|
G-----2-----2---------0---2-----2-----0-----0------|
D-------2-----2-------------2-----2-----2-----2--0-|
A---0-----------0-------------------3--------------|
E--------------------------------------------------|

(Chorus)
Em               Cadd9        G             D
I've never been the kind to ever let my feelings show,
E---0-----0-2-3-3-----3------------3--------------7-5-3-2-|
B-------0---------3-----3----3-------3-----3--------------|
G-----0-------------2-----2----0-------0-----2------------|
D----------------------------------------0-----0----------|
A---------------3-----------------------------------------|
E---0------------------------3---3------------------------|
Em               Cadd9       G              D
And I thought that being strong ment never losin' your self control
E---0-----0-2-3-3-----3------------3--------------3p2-----|
B-------0---------3-----3----3-------3-----3----------3---|
G-----0-------------2-----2----0-------0-----2----------0-|
D----------------------------------------0-----0----------|
A---------------3-----------------------------------------|
E---0------------------------3---3------------------------|
    Cmaj7         Bm
But I'm just drunk enough, to let go of my pain,
E-------------------------------|
B---0-----0-------------3-------|
G-----0-----0----4--------4---4-|
D-------2-----2----4--------4---|
A---3------------2---2----------|
E-------------------------------|
    Cmaj7        Bm             Am                                C
To hell with my pride, let it fall like rain, from my eyes,
E-------------------------------------------------------------------|
B---0-----0-------------3--------1-----1-----0h1p0---0-----0------1-|
G-----0-----0----4--------4---4----2-----2---------0---2-----2------|
D-------2-----2----4--------4--------2-----2-------------2-----2----|
A---3------------2---2-----------0-----------0--------------------3-|
E-------------------------------------------------------------------|
    G              G/B            Cabb9
Tonight I wanna cry.
E---3-----3/5-5/7--5---3h5-5/7------------------------------------------|
B-------3------------0---------3--5-----5--3-----3--1-----1--1--0h1-0---|
G-----0-----------------------------0--------0--------0---------------0-|
D-----------------------------------------------------------------------|
A------------------2--------------3---3----3---3----3---3----3--3-------|
E---3-------------------------------------------------------------------|


(verse 2)
G                            G/B         Cadd9
Would it help if I turned this sad song on?
E----------------------------------------------------------------|
B---------3--------------3---------------3-------1-------0h1-0---|
G---0-------0-----0--------0---0---0-------0---0---0---0-------0-|
D-----0-------0-----0----------------2-------2-------0-----------|
A---------------2-----2------2---3-----3-3-------3-------3-------|
E---3---3--------------------------------------------------------|
    G                        G/B         Cadd9
"All Ny Myself" would sure hit me hard now that your gone,
E----------------------------------------------------------------|
B---------3--------------3---------------3-------1-------0h1-0---|
G---0-------0-----0--------0---0---0-------0---0---0---0-------0-|
D-----0-------0-----0----------------2-------2-------0-----------|
A---------------2-----2------2---3-----3-3-------3-------3-------|
E---3---3--------------------------------------------------------|
Em7               Bm
Or maybe unfold some old yellow lost love letters,
E----------0-----------------------|
B------------0-------------3-------|
G---0----------0----4--------4---4-|
D-----2---------------4--------4---|
A-----------------2-----2----------|
E---0---0--------------------------|
     Em7          Bm
It's gonna hurt bad before it gets better,
E----------0---------------2-------|
B------------0---------------3---3-|
G---0----------0----4----------4---|
D-----2---------------4------------|
A-----------------2-----2----------|
E---0---0--------------------------|
         Am                         Cmaj7        D
But I'll never get over you, by hidin' this wa - y
E------------------------------------------------2-|
B---1-----1-----0h1p0---0-----0-----0-----0--------|
G-----2-----2---------0---2-----2-----0-----0------|
D-------2-----2-------------2-----2-----2-----2--0-|
A---0-----------0-------------------3--------------|
E--------------------------------------------------|

(Chorus)
Em               Cadd9       G             D
I've never been the kind to ever let my feelings show,
E---0-----0-2-3-3-----3------------3--------------7-5-3-2-|
B-------0---------3-----3----3-------3-----3--------------|
G-----0-------------2-----2----0-------0-----2------------|
D----------------------------------------0-----0----------|
A---------------3-----------------------------------------|
E---0------------------------3---3------------------------|
Em               Cadd9       G             D
And I thought that being strong ment never losin' your self control
E---0-----0-2-3-3-----3------------3--------------3p2-----|
B-------0---------3-----3----3-------3-----3----------3---|
G-----0-------------2-----2----0-------0-----2----------0-|
D----------------------------------------0-----0----------|
A---------------3-----------------------------------------|
E---0------------------------3---3------------------------|
Cmaj7             Bm
But I'm just drunk enough, to let go of my pain,
E-------------------------------|
B---0-----0-------------3-------|
G-----0-----0----4--------4---4-|
D-------2-----2----4--------4---|
A---3------------2---2----------|
E-------------------------------|
 Cmaj7           Bm              Am                               C
To hell with my pride, let it fall like rain, from my eyes,
E-----------------------------------------------------------------------------------------------|
B---0-----0-------------3--------1-----1-----0h1p0---0-----0------1-----1-----1-----1-----1-----|
G-----0-----0----4--------4---4----2-----2---------0---2-----2------0-----0-----0-----0-----0---|
D-------2-----2----4--------4--------2-----2-------------2-----2------2-----2-----2-----2-----2-|
A---3------------2---2-----------0-----------0--------------------3-----------------------------|
E-----------------------------------------------------------------------------------------------|
    Am           G               Am             G
Tonight I wanna cry.
E----------3-2-0---------3---------------2-3-5---------3--------|
B---1-------------3--------3---3--1-------------3--------3---3--|
G-----2-------------0--------0------2-------------0--------0----|
D-------2-----------------------------2-------------------------|
A---0-----------------------------0-----------------------------|
E-----------------3---3-------------------------3---3-----------|
    Am           G/B             Cadd9         D        D#
E-----------------------2---------------2--------2------2h3-5-|
B---1-----1------3--------3---3--3--------3--------3----------|
G-----2-----2------0--------0------0--------0--------2--------|
D-------2-----2------0---------------0---------0--------------|
A---0------------2---------------3----------------------------|
E-------------------------------------------------------------|


(Chorus)
Em               Cadd9             G            D
I've never been the kind to ever let my feelings show,
E---0-----0-2-3-3-----3------------3--------------7-5-3-2-|
B-------0---------3-----3----3-------3-----3--------------|
G-----0-------------2-----2----0-------0-----2------------|
D----------------------------------------0-----0----------|
A---------------3-----------------------------------------|
E---0------------------------3---3------------------------|
Em               Cadd9        G            D
And I thought that being strong ment never losin' your self control
E---0-----0-2-3-3-----3------------3--------------3p2-----|
B-------0---------3-----3----3-------3-----3----------3---|
G-----0-------------2-----2----0-------0-----2----------0-|
D----------------------------------------0-----0----------|
A---------------3-----------------------------------------|
E---0------------------------3---3------------------------|
Cmaj7             Bm
But I'm just drunk enough, to let go of my pain,
E-------------------------------|
B---0-----0-------------3-------|
G-----0-----0----4--------4---4-|
D-------2-----2----4--------4---|
A---3------------2---2----------|
E-------------------------------|
    Cmaj7        Bm              Am                  G/B         C
To hell with my pride, let it fall like rain, from my eyes,
E------------------------------------------------------------------|
B---0-----0-------------3--------1-----1-------1-----3------3----3-|
G-----0-----0----4--------4---4----2-----2---2---2-----0------0--0-|
D-------2-----2----4--------4--------2-----2-------2-----0---------|
A---3------------2---2-----------0-------------0-----2-----------3-|
E------------------------------------------------------------------|

(Ending)
    G              G/B            Cabb9
Tonight I wanna cry.
E---3-----3/5-5/7--5---3h5-5/7------------------------------------------|
B-------3------------0---------3--5-----5--3-----3--1-----1--1--0h1-0---|
G-----0-----------------------------0--------0--------0---------------0-|
D-----------------------------------------------------------------------|
A------------------2--------------3---3----3---3----3---3----3--3-------|
E---3-------------------------------------------------------------------|
    G              G/B            Cadd9(Gradually Slow)               G
E---3-----3/5-5/7--5---3h5-5/7----------------------------------------3-|
B-------3------------0---------3--5-----5--3-----3--1-----1--0h1-0----3-|
G-----0-----------------------------0--------0--------0------------2--0-|
D---------------------------------------------------------------------0-|
A------------------2--------------3---3----3---3----3---3----3--------2-|
E---3-----------------------------------------------------------------3-|


Great Song both musically and vocally. Chords are nice, but picking gives more
justice to the piano he uses in the song. Although song may not be note for note
it certainly close enough to figure it out. If you can fingerpick, this song comes
across very nicely. Good luck.